» » »

Fair To Midland, Viceversa Tabs (ver.2)

Artists:  A B C D E F G H I J K L M N O P Q R S T U V W X Y Z # 

Viceversa Tabs (ver.2)

Fair To Midland Tabs
 Rating:
3.6/5 (5 votes)
Viceversa lessons Tabs too difficult? Try these video lessons and learn fast
1
                99% of this is from the FTM forum.
*Note: Cliff (Guitarist) uses CGCGCC tuning..but this one works in drop C.
Vice/Versa
(*=palm muted)

Beginning
D--8-8--8-8-8--8-7-7--7-7-7--7-5-5--5-5-5--5-5-5--5-5--7--8-8--8-8-8--8-7-7--7-7-7--7-5--|
A----------------------------------------------------------------------------------------|
F----------------------------------------------------------------------------------------|
C--7-7--7-7-7--7-5-5--5-5-5--5-3-3--3-3-3--3-3-3--3-3--5--7-7--7-7-7--7-5-5--5-5-5--5-3--|
G--7-7--7-7-7--7-5-5--5-5-5--5-3-3--3-3-3--3-3-3--3-3--5--7-7--7-7-7--7-5-5--5-5-5--5-3--|
C--7-7--7-7-7--7-5-5--5-5-5--5-3-3--3-3-3--3-3-3--3-3--5--7-7--7-7-7--7-5-5--5-5-5--5-3--|

song is played like this: verse(x2), pre-chorus, chorus, verse(x1), pre-chorus, chorus, bridge, chorus

Verse (play twice for first verse, once for second verse)
D---0-0-0-0------------0-0-0-0-----------0-0-0-0------------0-0-0-0------------0-0-0-0-----------0-0-0-0----------------------0----------|
A--1-1-1-1--3-3-3-3-1-1-1-1--3-3-3-3-1-1-1-1--3-3-3-3-1-1-1-1--3-3-3-3-1-1-1-1--3-3-3-3-1-1-1-1--3-3-3-3------------1---3---1------------|
F------------4-4-4-4-----------4-4-4-4------------4-4-4-4-----------4-4-4-4------------4-4-4-4------------4-4-4-4-----------------4---2--|
C----------------------------------------------------------------------------------------------------------------------------------------|
G----------------------------------------------------------------------------------------------------------------------------------------|
C----------------------------------------------------------------------------------------------------------------------------------------|
'mountains of molehills, a grapevine in my ear.....'

D------------------------------|
A------------------------------|
F------------------------------|
C--*7*7*7*7*7*7*7*7*7*7*7*7-7--|
G--*7*7*7*7*7*7*7*7*7*7*7*7-7--|
C--*7*7*7*7*7*7*7*7*7*7*7*7-7--|

Pre-chorus
D--5-5-5-5--3--3-5-5-5-5--3--3-8-8-8-8--7--7-8-8-8-8--7--7-5-5-5-5--3--3-5-5-5-5--3--3-8-8-8-8--5--5-7-7-7-7--|
A-------------------------------------------------------------------------------------------------------------|
F-------------------------------------------------------------------------------------------------------------|
C--3-3-3-3--2--2-3-3-3-3--2--2-7-7-7-7--5--5-7-7-7-7--5--5-3-3-3-3--2--2-3-3-3-3--2--2-7-7-7-7--3--3-5-5-5-5--|
G--3-3-3-3--2--2-3-3-3-3--2--2-7-7-7-7--5--5-7-7-7-7--5--5-3-3-3-3--2--2-3-3-3-3--2--2-7-7-7-7--3--3-5-5-5-5--|
C--3-3-3-3--2--2-3-3-3-3--2--2-7-7-7-7--5--5-7-7-7-7--5--5-3-3-3-3--2--2-3-3-3-3--2--2-7-7-7-7--3--3-5-5-5-5--|
'and for you, bold face type covers your text.....'
(note: I can't seem to get the D string on this part to allign correctly with the rest, 
I'm sure you get the idea on how it's played, if not, then listen to the damn song eek )
Chorus
D--8-8---7-7---5-5--5-5-5--5-5-5--5-5--7--8-8---7-7---5-5--5-5-5-----------------|
A--------------------------------------------------------------------------------|
F--------------------------------------------------------------------------------|
C--7-7---5-5---3-3--3-3-3--3-3-3--3-3--5--7-7---5-5---3-3--3-3-3--3-5-3-5-0-7-0--|
G--7-7---5-5---3-3--3-3-3--3-3-3--3-3--5--7-7---5-5---3-3--3-3-3--3-5-3-5-0-7-0--|
C--7-7---5-5---3-3--3-3-3--3-3-3--3-3--5--7-7---5-5---3-3--3-3-3--3-5-3-5-0-7-0--|
'still frame, no dice......'

D--8-8--8-8-8--8-3-3--3-3-3--3-5-5--5-5-5--5-5-5--5-5--7--8-8--3-3--5--------------|
A----------------------------------------------------------------------------------|
F----------------------------------------------------------------------------------|
C--7-7--7-7-7--7-2-2--2-2-2--2-3-3--3-3-3--3-3-3--3-3--5--7-7--2-2--3--------------|
G--7-7--7-7-7--7-2-2--2-2-2--2-3-3--3-3-3--3-3-3--3-3--5--7-7--2-2--3--------------|
C--7-7--7-7-7--7-2-2--2-2-2--2-3-3--3-3-3--3-3-3--3-3--5--7-7--2-2--3--------------|
'the wood, the crest, that's weaved inside your vest.....'

Now this next part I don't believe has any guitar through the majority of it, until the end leading back up into the chorus again.

End of Bridge
D---------------------------------------------------8--8--8--8--8-7--8--------|
A-----------------------------------------------------------------------------|
F-----------------------------------------------------------------------------|
C--*7*7*7*7*7*7*7*7*7*7*7*7*7*7*7*7-7--7--7--7--7-5--7------------------------|
G--*7*7*7*7*7*7*7*7*7*7*7*7*7*7*7*7-7--7--7--7--7-5--7------------------------|
C--*7*7*7*7*7*7*7*7*7*7*7*7*7*7*7*7-7--7--7--7--7-5--7------------------------|

After this part go into the chorus again
            
Submit corrections

comments powered by Disqus
↑ Back to top | Fair To Midland Tabs for Viceversa. Lyrics for acoustic guitar and electric guitar. 1 Tablatures and chords are parodies/interpretations of the original songs. You may use it for private study, scholarship, research or language learning purposes only