>
 >
The Walls Of Jericho 1

The Walls Of Jericho 1 Guitar Tabs

Fair To Midland - The Walls Of Jericho 1 chords, tabs, tablatures, lyrics

Guitar lessons | Add/correct | Request | Top 50 tabs Artists:  A B C D E F G H I J K L M N O P Q R S T U V W X Y Z 0-9

The Walls Of Jericho 1 Guitar Tabs – Fair To Midland

CD, Sheet music, Poster

Do you like The Walls Of Jericho 1? Share with your friends now
TabsTabs v2
-------------------------------------------------------------------------------
			     Walls of Jericho - Fair To Midland
-------------------------------------------------------------------------------

Tuning:  CGCGCc

This is my interpretation of the song after
watching FTM play it live twice, and listening 
extensively to the song on slo-mo.  Iím quite 
sure about the tuning as well, all FTM songs are
played in this open power chord C tuning. As for 
whether you should tune the high E string up or 
down to C, just know that when I tried tuning it
up, my string broke.  Either way works.

Enjoy!


Intro, (listen for rhythm) clean tone
c|---------------------------------------------------------------------------|
C|--7-xxxx-7-xxxxxxxx-7-xxxx-7-xxxx-x-xx-------------------------------------|
G|--5-xxxx-5-xxxxxxxx-5-xxxx-5-xxxx-x-xx-------------------------------------|
C|--7-xxxx-7-xxxxxxxx-7-xxxx-7-xxxx-x-xx-------------------------------------|
G|---------------------------------------------------------------------------|
C|---------------------------------------------------------------------------|

c|---------------------------------------------------------------------------|
C|--7-xxxx-7-x-x-x-x-x-x-7-xxxx-7-xxxxx-xx-----------------------------------|
G|--5-xxxx-5-x-x-x-x-x-x-5-xxxx-5-xxxxx-xx-----------------------------------|
C|--7-xxxx-7-x-x-x-x-x-x-7-xxxx-7-xxxxx-xx-----------------------------------|
G|---------------------------------------------------------------------------|
C|---------------------------------------------------------------------------|

Verse 1, clean tone
c|---------------------------------------------------------------------------|
C|--7--7----5--5----3--3----5--5----7--7----5--5----3--3----5--5-------------|
G|--5--5----3--3----1--1----3--3----5--5----3--3----1--1----3--3-------------|
C|--7--7----5--5----3--3----5--5----7--7----5--5----3--3----5--5-------------|
G|---------------------------------------------------------------------------|
C|---------------------------------------------------------------------------|

c|---------------------------------------------------------------------------|
C|--7-7-7----7-7-7----7-7-7----7-7-7-----------------------------------------|
G|--5-5-5----7-7-7----8-8-8----7-7-7-----------------------------------------|
C|--7-7-7----7-7-7----7-7-7----7-7-7-------12\\------------------------------|
G|-----------------------------------------12\\------------------------------|
C|-----------------------------------------12\\------------------------------|

Chorus, distortion 			 (sixteenth notes after chords)
c|-------------------------------------------------------------------------------|
C|-------------------------------------------------------------------------------|
G|-------------------------------------------------------------------------------|
C|--8-8-8-8-10-10-10-10-12-12-12-12----------------------------------------------|
G|--8-8-8-8-10-10-10-10-12-12-12-12----------------------------------------------|
C|--8-8-8-8-10-10-10-10-12-12-12-12--15-14-0-10-12-0-15-14-0-10-12-0-10-0-10h12--|

c|-------------------------------------------------------------------------------|
C|-------------------------------------------------------------------------------|
G|-------------------------------------------------------------------------------|
C|--8-8-8-8-10-10-10-10-12-12-12-12----------------------------------------------|
G|--8-8-8-8-10-10-10-10-12-12-12-12----------------------------------------------|
C|--8-8-8-8-10-10-10-10-12-12-12-12--7-0-7-0-10-0-12-0-12-0-14-0-14-15-----------|

c|-------------------------------------------------------------------------------|
C|-------------------------------------------------------------------------------|
G|-------------------------------------------------------------------------------|
C|--8-8-8-8-10-10-10-10-12-12-12-12----------------------------------------------|
G|--8-8-8-8-10-10-10-10-12-12-12-12----------------------------------------------|
C|--8-8-8-8-10-10-10-10-12-12-12-12--15-14-0-10-12-0-15-14-0-10-12-0-10-0-10h12--|

c|---------------|
C|---------------|
G|---------------|
C|--8-xx-8-10----|
G|--8-xx-8-10----|
C|--8-xx-8-10----|

Verse 2a
c|---------------------------------------------------------------------------|
C|--7-xxxx-7-xxxxxxxx-7/8-xxxx-8-xxxxx-888-----------------------------------|
G|--5-xxxx-5-xxxxxxxx-5/6-xxxx-6-xxxxx-666-----------------------------------|
C|--7-xxxx-7-xxxxxxxx-7/8-xxxx-8-xxxxx-888-----------------------------------|
G|---------------------------------------------------------------------------|
C|---------------------------------------------------------------------------|

c|---------------------------------------------------------------------------|
C|--8/10-xxxx-10-xxxxxx-1010-10\8-xxxx-8-xx-xx-xx----------------------------|
G|--6/8--xxxx-8--xxxxxx-8-8--8-\6-xxxx-6-xx-xx-xx----------------------------|
C|--8/10-xxxx-10-xxxxxx-1010-10\8-xxxx-8-xx-xx-xx----------------------------|
G|---------------------------------------------------------------------------|
C|---------------------------------------------------------------------------|

Verse 2b
c|---------------------------------------------------------------------------|
C|--7-xxxx-7-xxxxxxxx-5-xxxx-5-xx-xx-xx-3-xxxx-3-xxxxxxxx-5-xxxx-5-xx-xx-xx--|
G|--5-xxxx-5-xxxxxxxx-3-xxxx-3-xx-xx-xx-1-xxxx-1-xxxxxxxx-3-xxxx-3-xx-xx-xx--|
C|--7-xxxx-7-xxxxxxxx-5-xxxx-5-xx-xx-xx-3-xxxx-3-xxxxxxxx-5-xxxx-5-xx-xx-xx--|
G|---------------------------------------------------------------------------|
C|---------------------------------------------------------------------------|

c|---------------------------------------------------------------------------|
C|--7-xxxx-7-xxxxxxxx-5-xxxx-5-xx-xx-xx-3-xxxx-3-xxxxxxxx-5-xxxx-5-xx-xx-xx--|
G|--5-xxxx-5-xxxxxxxx-3-xxxx-3-xx-xx-xx-1-xxxx-1-xxxxxxxx-3-xxxx-3-xx-xx-xx--|
C|--7-xxxx-7-xxxxxxxx-5-xxxx-5-xx-xx-xx-3-xxxx-3-xxxxxxxx-5-xxxx-5-xx-xx-xx--|
G|---------------------------------------------------------------------------|
C|---------------------------------------------------------------------------|

c|---------------------------------------------------------------------------|
C|--7-7-7----7-7-7----7-7-7----7-7-7-----------------------------------------|
G|--5-5-5----7-7-7----8-8-8----7-7-7-----------------------------------------|
C|--7-7-7----7-7-7----7-7-7----7-7-7-------12\\------------------------------|
G|-----------------------------------------12\\------------------------------|
C|-----------------------------------------12\\------------------------------|

Chorus, distortion
c|-------------------------------------------------------------------------------|
C|-------------------------------------------------------------------------------|
G|-------------------------------------------------------------------------------|
C|--8-8-8-8-10-10-10-10-12-12-12-12----------------------------------------------|
G|--8-8-8-8-10-10-10-10-12-12-12-12----------------------------------------------|
C|--8-8-8-8-10-10-10-10-12-12-12-12--15-14-0-10-12-0-15-14-0-10-12-0-10-0-10h12--|

c|-------------------------------------------------------------------------------|
C|-------------------------------------------------------------------------------|
G|-------------------------------------------------------------------------------|
C|--8-8-8-8-10-10-10-10-12-12-12-12----------------------------------------------|
G|--8-8-8-8-10-10-10-10-12-12-12-12----------------------------------------------|
C|--8-8-8-8-10-10-10-10-12-12-12-12--7-0-7-0-10-0-12-0-12-0-14-0-14-15-----------|

c|-------------------------------------------------------------------------------|
C|-------------------------------------------------------------------------------|
G|-------------------------------------------------------------------------------|
C|--8-8-8-8-10-10-10-10-12-12-12-12----------------------------------------------|
G|--8-8-8-8-10-10-10-10-12-12-12-12----------------------------------------------|
C|--8-8-8-8-10-10-10-10-12-12-12-12--15-14-0-10-12-0-15-14-0-10-12-0-10-0-10h12--|

c|---------------|
C|---------------|
G|---------------|
C|--8-xx-8-10----|
G|--8-xx-8-10----|
C|--8-xx-8-10----|

Bridge 1 (listen for rhythm) (let open strings ring)
c|------0-----------0------------0---------0-------------|
C|------0-----------0------------0---------0-------------|
G|------0-----------0------------0---------0-------------|
C|-------------------------------------------------------|
G|-------------------------------------------------------|
C|--8-8---8h10-8h10---10-10--0-0---0h3-0h3---0-3p0-------|

c|------0-----------0------------0---------0-------------|
C|------0-----------0------------0---------0-------------|
G|------0-----------0------------0---------0-------------|
C|-------------------------------------------------------|
G|-------------------------------------------------------|
C|--8-8---8h10-8h10---10-10--0-0---0h3-0h3---0-3p0-------|

c|------0-----------0------------0---------0-------------|
C|------0-----------0------------0---------0-------------|
G|------0-----------0------------0---------0-------------|
C|-------------------------------------------------------|
G|-------------------------------------------------------|
C|--8-8---8h10-8h10---10-10--0-0---0h3-0h3---0-3p0-------|

c|------0---|
C|------0---|
G|------0---|
C|----------|
G|----------|
C|--8-8-----|

Bridge 2a (palm muted sixteenth notes) (clean tone)			Repeat X3
c|---------------------------------------------------------------------------|
C|---------------------------------------------------------------------------|
G|---------------------------------------------------------------------------|
C|--15-15-15-15-15-15-15-15-15-15-15-15-15h17-17-17--------------------------|
G|---------------------------------------------------------------------------|
C|---------------------------------------------------------------------------|

c|---------------------------------------------------------------------------|
C|---------------------------------------------------------------------------|
G|---------------------------------------------------------------------------|
C|--14-14-14-14-14-14-14-14-14-14-14-14-14h15-14-14--------------------------|
G|---------------------------------------------------------------------------|
C|---------------------------------------------------------------------------|
		
c|---------------------------------------------------------------------------|
C|---------------------------------------------------------------------------|	
G|---------------------------------------------------------------------------|
C|--15-15-15-15-15-15-15-15-15-15-15-15-15-15-15-15--------------------------|
G|---------------------------------------------------------------------------|
C|---------------------------------------------------------------------------|

(echo, distortion) (sixteenth notes)
c|---------------------------------------------------------------------------|
C|--15-15-15-15-15-15-14-14-14-14-14-14-14-14-14-14--------------------------|
G|--12-12-12-12-12-12-12-12-12-12-12-12-15-15-15-15--------------------------|
C|--12-12-12-12-12-12-12-12-12-12-12-12-12-12-12-12--------------------------|
G|---------------------------------------------------------------------------|
C|---------------------------------------------------------------------------|


Bridge 2b (volume swells)
c|---------------------------------------------------------------------------|
C|---------------------------------------------------------------------------|
G|---------------------------------------------------------------------------|
C|--8888888888888888-10-10-10-10-10-10-10-10-10-10-10-10-10-10-10-10---------|
G|--8888888888888888-10-10-10-10-10-10-10-10-10-10-10-10-10-10-10-10---------|
C|--8888888888888888-10-10-10-10-10-10-10-10-10-10-10-10-10-10-10-10---------|

c|---------------------------------------------------------------------------|
C|---------------------------------------------------------------------------|
G|---------------------------------------------------------------------------|
C|--12-12-12-12-12-12-12-12-12-12-12-12-12-12-12-12-12-12-12-12-12-----------|
G|--12-12-12-12-12-12-12-12-12-12-12-12-12-12-12-12-12-12-12-12-12-----------|
C|--12-12-12-12-12-12-12-12-12-12-12-12-12-12-12-12-12-12-12-12-12...etc-----|

Chorus, distortion
c|-------------------------------------------------------------------------------|
C|-------------------------------------------------------------------------------|
G|-------------------------------------------------------------------------------|
C|--8-8-8-8-10-10-10-10-12-12-12-12----------------------------------------------|
G|--8-8-8-8-10-10-10-10-12-12-12-12----------------------------------------------|
C|--8-8-8-8-10-10-10-10-12-12-12-12--15-14-0-10-12-0-15-14-0-10-12-0-10-0-10h12--|

c|-------------------------------------------------------------------------------|
C|-------------------------------------------------------------------------------|
G|-------------------------------------------------------------------------------|
C|--8-8-8-8-10-10-10-10-12-12-12-12----------------------------------------------|
G|--8-8-8-8-10-10-10-10-12-12-12-12----------------------------------------------|
C|--8-8-8-8-10-10-10-10-12-12-12-12--7-0-7-0-10-0-12-0-12-0-14-0-14-15-----------|

c|-------------------------------------------------------------------------------|
C|-------------------------------------------------------------------------------|
G|-------------------------------------------------------------------------------|
C|--8-8-8-8-10-10-10-10-12-12-12-12----------------------------------------------|
G|--8-8-8-8-10-10-10-10-12-12-12-12----------------------------------------------|
C|--8-8-8-8-10-10-10-10-12-12-12-12--15-14-0-10-12-0-15-14-0-10-12-0-10-0-10h12--|

Outro
c|---------------------------------------------------------------------------|
C|---------------------------------------------------------------------------|
G|---------------------------------------------------------------------------|
C|--8-8-8-8-8-8-8-8-10-10-10-10-10-10-10-10----------------------------------|
G|--8-8-8-8-8-8-8-8-10-10-10-10-10-10-10-10----------------------------------|
C|--8-8-8-8-8-8-8-8-10-10-10-10-10-10-10-10----------------------------------|

c|---------------------------------------------------------------------------|
C|---------------------------------------------------------------------------|
G|---------------------------------------------------------------------------|
C|---------------------------------------------------------------------------|
G|---------------------------------------------------------------------------|
C|--15-14-0-10-12-0-15-14-0-10-12-0-10-0-10h12-------------------------------|

c|---------------------------------------------------------------------------|
C|---------------------------------------------------------------------------|
G|---------------------------------------------------------------------------|
C|---------------------------------------------------------------------------|
G|---------------------------------------------------------------------------|
C|--15-14-0-10-12-0-15-14-0-10-12-0-10-0-10h12-------------------------------|

c|---------------------------------------------------------------------------|
C|---------------------------------------------------------------------------|
G|---------------------------------------------------------------------------|
C|------------------------------------------------10-12----10-12-------------|
G|------------------------------------------------10-12----10-12-------------|
C|--15-14-0-10-12-0-15-14-0-10-12-0-10-0-10h12----10-12----10-12-------------|

| /  slide up
| \  slide down
| h  hammer-on
| p  pull-off
| ~  vibrato
| +  harmonic
| x  Mute note
===============================================================================





Comments


Popular Fair To Midland tabs & chords
A Wolf Decends Upon The Spanish Sahara Chords
A Wolf Descends Upon The Spanish Sahara Chords
A Loophole In Limbo Tabs
A Wolf Descends Upon The Spanish Sahara Intro Tabs
Amarillo Sleeps On My Pillow Tabs
Dance Of Manatee Intro Tabs
Granny Niblo Tabs
Granny Niblo 1 Tabs
Informative Timeline Tabs
The Wife The Kids And The White Picket Fence Ukulele


Song lyrics



↑ Back to top | Tablatures and chords are parodies/interpretations of the original songs. You may use it for private study, scholarship, research or language learning purposes only
© 2014 AZChords.com Contact us | Privacy policy | DMCA | Add/correct tabs | Request tabs | Top 50 tabs