>
 >
Musical Chairs

Musical Chairs Guitar Tabs

Fair To Midland - Musical Chairs chords, tabs, tablatures, lyrics

Guitar lessons | Add/correct | Request | Top 50 tabs Artists:  A B C D E F G H I J K L M N O P Q R S T U V W X Y Z 0-9

Musical Chairs Guitar Tabs – Fair To Midland

CD, Sheet music, Poster

Do you like Musical Chairs? Share with your friends now
Bass TabsTabs
----------------------------------------------------------------------------
                                Musical Chairs
                               Fair To Midland
----------------------------------------------------------------------------

Well, Fair To Midland has got to be the most underrated band of all time. Their live 
performances are just jaw-dropping. Darroh is an animal, and now I know why Serj Tankian 
was so attracted to them. This so is so sweet, and it has some awesome piano 
parts. That is why Iíve transferred most of the piano parts to guitar in this 
cover. THEY ARE POSSIBLE, 
just check out my cover of it and youíll know! Enjoy!

Username: dkm817 (same on X box live)

(Tab Legend at bottom)
Guitar 1 Rhythmic/ Piano (C G C F A D)
Guitar 2 Lead            (C G C F A D)
Guitar 3 Acoustic        (C G C F A D)

Intro 1

Guitar 1
D-----------------------------------------------------------------|
A-----------------------------------------------------------------|
F-----------------------------------------------------------------|
C-----------------3~~~~~~~~~~~~~~---------------------------------|
G-5~~~~~~~~~~~~~~-----------------2~~~~~~~~~~~~~~~~~~~~~~~~~~~~~~-|
C-0~~~~~~~~~~~~~~-3~~~~~~~~~~~~~~-5~~~~~~~~~~~~~~~~~~~~~~~~~~~~~~-|

Guitar 1
D-----------------------------------------------------------------|
A-----------------------------------------------------------------|
F-----------------------------------------------------------------|
C------------------------------------------------------------5~~~-|
G-5~~~~~~~~~~~~~~-5~~~~~~~~~~~~~~-5~~~~~~~~~~~-7~~~~~-8~~~~~------|
C-0~~~~~~~~~~~~~~-8~~~~~~~~~~~~~~-5~~~~~~~~~~~~~~~~~~~~~~~~~~~~~~-|

Guitar 1
D-----------------------------------------------------------------|
A-----------------------------------------------------------------|
F------------------------5~~~~~~-5~~~~~~-4~~~~~~~~~~~~~~~~~~~~~~~-|
C-7~~~-5~~~-3~~~-2~~~~~~------------------------------------------|
G-----------------------------------------------------------------|
C-0~~~~~~~~~~~~~~~~~~~~~~~~~~~~~~~~~-5~~~~~~~~~~~~~~~~~~~~~~~~~~~-

Guitar 1                          |          Guitar Part         |
D-----------------------------------------------------------------|
A-----------------------------------------------------------------|
F-----------------------------------------------------------------|
C---------------------------------5~~~~~~-5~~~~~~-5~~~~~~-5~~~~~~-|
G-8~~~~~~~~~~~~~~-10~~~~~~~~~~~~~-5~~~~~~-5~~~~~~-5~~~~~~-5~~~~~~-|
C-7~~~~~~~~~~~~~~-8~~~~~~~~~~~~~~-5~~~~~~-5~~~~~~-5~~~~~~-5~~~~~~-|

Guitar 2
D-----------------------------------------------------------------|
A-----------------------------------------------------------------|
F-----------------------------------------------------------------|
C---------------------------------5~~~~~~-5~~~~~~-5~~~~~~-5~~~~~~-|
G---------------------------------5~~~~~~-5~~~~~~-5~~~~~~-5~~~~~~-|
C---------------------------------5~~~~~~-5~~~~~~-5~~~~~~-5~~~~~~-|

Intro 2

Guitar 1
D-----------------------------------------------------------------|
A-----------------------------------------------------------------|
F-----------------------------------------------------------------|
C-0-0-0-0-0-0-0-0-3-3-3-3-3-3-3-3-5-5-5-5-5-5-5-5-5-5-5-5-7-7-7-7-|
G-0-0-0-0-0-0-0-0-3-3-3-3-3-3-3-3-5-5-5-5-5-5-5-5-5-5-5-5-7-7-7-7-|
C-0-0-0-0-0-0-0-0-3-3-3-3-3-3-3-3-5-5-5-5-5-5-5-5-5-5-5-5-7-7-7-7-|

Guitar 2
D------------------------------------------------------------------|
A------------------------------------------------------------------|
F-7-7-7-7-7-7-7-7-101010101010101012121212121212121212121214141414-|
C-x-x-x-x-x-x-x-x-x-x-x-x-x-x-x-x-x-x-x-x-x-x-x-x-x-x-x-x-x-x-x-x--|
G-5-5-5-5-5-5-5-5-8-8-8-8-8-8-8-8-10101010101010101010101012121212-|
C------------------------------------------------------------------|

Guitar 1
D-----------------------------------------------------------------|
A-----------------------------------------------------------------|
F-----------------------------------------------------------------|
C-0-0-0-0-0-0-0-0-3-3-3-3-3-3-3-3-5-5-5-5-5-5-5-5-5-5-5-5-7-7-7-7-|
G-0-0-0-0-0-0-0-0-3-3-3-3-3-3-3-3-5-5-5-5-5-5-5-5-5-5-5-5-7-7-7-7-|
C-0-0-0-0-0-0-0-0-3-3-3-3-3-3-3-3-5-5-5-5-5-5-5-5-5-5-5-5-7-7-7-7-|

Guitar 2
D------------------------------------------------------------------|
A------------------------------------------------------------------|
F-7-7-7-7-7-7-7-7-101010101010101012121212121212121212121214141414-|
C-x-x-x-x-x-x-x-x-x-x-x-x-x-x-x-x-x-x-x-x-x-x-x-x-x-x-x-x-x-x-x-x--|
G-5-5-5-5-5-5-5-5-8-8-8-8-8-8-8-8-10101010101010101010101012121212-|
C------------------------------------------------------------------|

Guitar 1
D-----------------------------------------------------------------|
A-----------------------------------------------------------------|
F-----------------------------------------------------------------|
C-0-0-0-0-0-0-0-0-3-3-3-3-3-3-3-3-5-5-5-5-5-5-5-5-5-5-5-5-7-7-7-7-|
G-0-0-0-0-0-0-0-0-3-3-3-3-3-3-3-3-5-5-5-5-5-5-5-5-5-5-5-5-7-7-7-7-|
C-0-0-0-0-0-0-0-0-3-3-3-3-3-3-3-3-5-5-5-5-5-5-5-5-5-5-5-5-7-7-7-7-|

Guitar 2
D------------------------------------------------------------------|
A------------------------------------------------------------------|
F-7-7-7-7-7-7-7-7-101010101010101012121212121212121212121214141414-|
C-x-x-x-x-x-x-x-x-x-x-x-x-x-x-x-x-x-x-x-x-x-x-x-x-x-x-x-x-x-x-x-x--|
G-5-5-5-5-5-5-5-5-8-8-8-8-8-8-8-8-10101010101010101010101012121212-|
C------------------------------------------------------------------|

Break Off 1

Guitar 1 & 2
D-----------------------------------------------------------------|
A-----------------------------------------------------------------|
F-----------------------------------------------------------------|
C-10--11--12--13--10--11--12--13--10--11--12--13--10--11--12--13--|
G-10--11--12--13--10--11--12--13--10--11--12--13--10--11--12--13--|
C-10--11--12--13--10--11--12--13--10--11--12--13--10--11--12--13--|

Verse 1

Guitar 3
D-5~~~~~~~~~~-3~~~~~~~~~~~~~~-3~~~~~~~~~~~~~~~~~~~~~~~~~~~~~~~~~~-|
A-6~~~~~~~~~~-5~~~~~~~~~~~~~~-3~~~~~~~~~~~~~~~~~~~~~~~~~~~~~~~~~~-|
F-7~~~~~~~~~~-5~~~~~~~~~~~~~~-0~~~~~~~~~~~~~~~~~~~~~~~~~~~~~~~~~~-|
C-7~~~~~~~~~~-5~~~~~~~~~~~~~~-0~~~~~~~~~~~~~~~~~~~~~~~~~~~~~~~~~~-|
G-----------------------------------------------------------------|
C-----------------------------------------------------------------|

Guitar 3
D-5~~~~~~~~~~-3~~~~~~~~~~-5~~~~~~~~~~-3~~~~~~~~~~~~~~~~~~~~~~~~~~-|
A-6~~~~~~~~~~-3~~~~~~~~~~-5~~~~~~~~~~-3~~~~~~~~~~~~~~~~~~~~~~~~~~-|
F-7~~~~~~~~~~-0~~~~~~~~~~-7~~~~~~~~~~-0~~~~~~~~~~~~~~~~~~~~~~~~~~-|
C-7~~~~~~~~~~-0~~~~~~~~~~-7~~~~~~~~~~-0~~~~~~~~~~~~~~~~~~~~~~~~~~-|
G-----------------------------------------------------------------|
C-----------------------------------------------------------------|

Guitar 3
D-5~~~~~~~~~~-3~~~~~~~~~~~~~~-3~~~~~~~~~~~~~~~~~~~~~~~~~~~~~~~~~~-|
A-6~~~~~~~~~~-5~~~~~~~~~~~~~~-3~~~~~~~~~~~~~~~~~~~~~~~~~~~~~~~~~~-|
F-7~~~~~~~~~~-5~~~~~~~~~~~~~~-0~~~~~~~~~~~~~~~~~~~~~~~~~~~~~~~~~~-|
C-7~~~~~~~~~~-5~~~~~~~~~~~~~~-0~~~~~~~~~~~~~~~~~~~~~~~~~~~~~~~~~~-|
G-----------------------------------------------------------------|
C-----------------------------------------------------------------|

Guitar 3
D-6~~~~~~~~~~~~~~~~~~~~~~~~~~~~~~~~~~~~~~~~~~~~~~~~~~~~~~~~~~~~~~-
A-6~~~~~~~~~~~~~~~~~~~~~~~~~~~~~~~~~~~~~~~~~~~~~~~~~~~~~~~~~~~~~~-
F-7~~~~~~~~~~~~~~~~~~~~~~~~~~~~~~~~~~~~~~~~~~~~~~~~~~~~~~~~~~~~~~-
C-7~~~~~~~~~~~~~~~~~~~~~~~~~~~~~~~~~~~~~~~~~~~~~~~~~~~~~~~~~~~~~~-
G-----------------------------------------------------------------|
C-----------------------------------------------------------------|

Break Off 2

Guitar 1
D-----------------------------------------------------------------|
A-----------------------------------------------------------------|
F-----------------------------------------------------------------|
C-----------------------------------------------------------------|
G-----------------------------------------------------------------|
C-0---2---3---0---5---7---0---7---8---0---8---11--0---10--12--13--|
Pm.   .   .   .   .   .   .   .   .   .   .   .   .   .   .   .

Pre Chorus

Guitar 1
D-----------------------------------------------------------------|
A-----------------------------------------------------------------|
F-----------------------------------------------------------------|
C-0-0-0-0-0-0-0-0-3-3-3-3-3-3-3-3-5-5-5-5-5-5-5-5-5-5-5-5-7-7-7-7-|
G-0-0-0-0-0-0-0-0-3-3-3-3-3-3-3-3-5-5-5-5-5-5-5-5-5-5-5-5-7-7-7-7-|
C-0-0-0-0-0-0-0-0-3-3-3-3-3-3-3-3-5-5-5-5-5-5-5-5-5-5-5-5-7-7-7-7-|

Guitar 2
D------------------------------------------------------------------|
A------------------------------------------------------------------|
F-7-7-7-7-7-7-7-7-101010101010101012121212121212121212121214141414-|
C-x-x-x-x-x-x-x-x-x-x-x-x-x-x-x-x-x-x-x-x-x-x-x-x-x-x-x-x-x-x-x-x--|
G-5-5-5-5-5-5-5-5-8-8-8-8-8-8-8-8-10101010101010101010101012121212-|
C------------------------------------------------------------------|

Guitar 1
D-----------------------------------------------------------------|
A-----------------------------------------------------------------|
F-----------------------------------------------------------------|
C-0-0-0-0-0-0-0-0-3-3-3-3-3-3-3-3-5-5-5-5-5-5-5-5-5-5-5-5-7-7-7-7-|
G-0-0-0-0-0-0-0-0-3-3-3-3-3-3-3-3-5-5-5-5-5-5-5-5-5-5-5-5-7-7-7-7-|
C-0-0-0-0-0-0-0-0-3-3-3-3-3-3-3-3-5-5-5-5-5-5-5-5-5-5-5-5-7-7-7-7-|

Guitar 2
D------------------------------------------------------------------|
A------------------------------------------------------------------|
F-7-7-7-7-7-7-7-7-101010101010101012121212121212121212121214141414-|
C-x-x-x-x-x-x-x-x-x-x-x-x-x-x-x-x-x-x-x-x-x-x-x-x-x-x-x-x-x-x-x-x--|
G-5-5-5-5-5-5-5-5-8-8-8-8-8-8-8-8-10101010101010101010101012121212-|
C------------------------------------------------------------------|

Chorus

Guitar 1 & 2
D-----------------------------------------------------------------|
A-----------------------------------------------------------------|
F-----------------------------------------------------------------|
C-8---8---8---8---8---8---8---8---10--10--10--10--10--10--10--10--|
G-8---8---8---8---8---8---8---8---10--10--10--10--10--10--10--10--|
C-8---8---8---8---8---8---8---8---10--10--10--10--10--10--10--10--|

Guitar 1 & 2
D-----------------------------------------------------------------|
A-----------------------------------------------------------------|
F-----------------------------------------------------------------|
C-0---0---0---0---0---0---0---0---0---0---0---0---0---0---0---0---|
G-0---0---0---0---0---0---0---0---0---0---0---0---0---0---0---0---|
C-0---0---0---0---0---0---0---0---0---0---0---0---0---0---0---0---|

Guitar 1 & 2
D-----------------------------------------------------------------|
A-----------------------------------------------------------------|
F-----------------------------------------------------------------|
C-3---3---3---3---3---3---3---3---3---3---3---3---3---3---3---3---|
G-3---3---3---3---3---3---3---3---3---3---3---3---3---3---3---3---|
C-3---3---3---3---3---3---3---3---3---3---3---3---3---3---3---3---|

Guitar 1 & 2
D-----------------------------------------------------------------|
A-----------------------------------------------------------------|
F-----------------------------------------------------------------|
C-5---5---5---5---5---5---5---5---5---5---5---5---5---5---5---5---|
G-5---5---5---5---5---5---5---5---5---5---5---5---5---5---5---5---|
C-5---5---5---5---5---5---5---5---5---5---5---5---5---5---5---5---|

Guitar 1 & 2
D-----------------------------------------------------------------|
A-----------------------------------------------------------------|
F-----------------------------------------------------------------|
C-8---8---8---8---8---8---8---8---10--10--10--10--10--10--10--10--|
G-8---8---8---8---8---8---8---8---10--10--10--10--10--10--10--10--|
C-8---8---8---8---8---8---8---8---10--10--10--10--10--10--10--10--|

Guitar 1 & 2
D-----------------------------------------------------------------|
A-----------------------------------------------------------------|
F-----------------------------------------------------------------|
C-0---0---0---0---0---0---0---0---0---0---0---0---0---0---0---0---|
G-0---0---0---0---0---0---0---0---0---0---0---0---0---0---0---0---|
C-0---0---0---0---0---0---0---0---0---0---0---0---0---0---0---0---|

Guitar 1 & 2
D-----------------------------------------------------------------|
A-----------------------------------------------------------------|
F-----------------------------------------------------------------|
C-3---3---3---3---3---3---3---3---3---3---3---3---3---3---3---3---|
G-3---3---3---3---3---3---3---3---3---3---3---3---3---3---3---3---|
C-3---3---3---3---3---3---3---3---3---3---3---3---3---3---3---3---|

Guitar 1
D-----------------------------------------------------------------|
A-----------------------------------------------------------------|
F-----------------------------------------------------------------|
C-1---1---1---1---1---1---1---1---1---1---1---1---1---1---1---1---|
G-1---1---1---1---1---1---1---1---1---1---1---1---1---1---1---1---|
C-1---1---1---1---1---1---1---1---1---1---1---1---1---1---1---1---|

Guitar 2
D-----------------------------------------------------------------|
A-4---4---4---4---4---4---4---4---4---4---4---4---4---4---4---4---|
F-3---3---3---3---3---3---3---3---3---3---3---3---3---3---3---3---|
C-----------------------------------------------------------------|
G-----------------------------------------------------------------|
C-----------------------------------------------------------------|

Break Off 3

Guitar 1 & 2
D-----------------------------------------------------------------|
A-----------------------------------------------------------------|
F-----------------------------------------------------------------|
C-----------------------------------------------------------------|
G-----------------------------------------------------------------|
C-----------------------------------------------------------------|

Verse 2

Guitar 3
D-5~~~~~~~~~~-3~~~~~~~~~~~~~~-3~~~~~~-----------------------------|
A-6~~~~~~~~~~-5~~~~~~~~~~~~~~-3~~~~~~-3~~~--------3~~~--------3~~-|
F-7~~~~~~~~~~-5~~~~~~~~~~~~~~-0~~~~~~-0~~~--5~~~--0~~~--5~~~--0~~-|
C-7~~~~~~~~~~-5~~~~~~~~~~~~~~-0~~~~~~-------3~~~--------3~~~------|
G-----------------------------------------------------------------|
C-----------------------------------------------------------------|

Guitar 3
D-5~~~~~~~~~~-3~~~~~~~~~~-5~~~~~~~~~~-3~~~~~~~~~~~~~~~~~~~~~~~~~~-|
A-6~~~~~~~~~~-3~~~~~~~~~~-5~~~~~~~~~~-3~~~~~~~~~~~~~~~~~~~~~~~~~~-|
F-7~~~~~~~~~~-0~~~~~~~~~~-7~~~~~~~~~~-0~~~~~~~~~~~~~~~~~~~~~~~~~~-|
C-7~~~~~~~~~~-0~~~~~~~~~~-7~~~~~~~~~~-0~~~~~~~~~~~~~~~~~~~~~~~~~~-|
G-----------------------------------------------------------------|
C-----------------------------------------------------------------|

Guitar 3
D-5~~~~~~~~~~-3~~~~~~~~~~~~~~-3~~~~~~-----------------------------|
A-6~~~~~~~~~~-5~~~~~~~~~~~~~~-3~~~~~~-3~~~--------3~~~--------3~~-|
F-7~~~~~~~~~~-5~~~~~~~~~~~~~~-0~~~~~~-0~~~--5~~~--0~~~--5~~~--0~~-|
C-7~~~~~~~~~~-5~~~~~~~~~~~~~~-0~~~~~~-------3~~~--------3~~~------|
G-----------------------------------------------------------------|
C-----------------------------------------------------------------|

Guitar 3
D-6~~~~~~~~~~~~~~~~~~~~~~~~~~~~~~~~~~~~~~~~~~~~~~~~~~~~~~~~~~~~~~-
A-6~~~~~~~~~~~~~~~~~~~~~~~~~~~~~~~~~~~~~~~~~~~~~~~~~~~~~~~~~~~~~~-
F-7~~~~~~~~~~~~~~~~~~~~~~~~~~~~~~~~~~~~~~~~~~~~~~~~~~~~~~~~~~~~~~-
C-7~~~~~~~~~~~~~~~~~~~~~~~~~~~~~~~~~~~~~~~~~~~~~~~~~~~~~~~~~~~~~~-
G-----------------------------------------------------------------|
C-----------------------------------------------------------------|

Break Off 2

Guitar 1
D-----------------------------------------------------------------|
A-----------------------------------------------------------------|
F-----------------------------------------------------------------|
C-----------------------------------------------------------------|
G-----------------------------------------------------------------|
C-0---2---3---0---5---7---0---7---8---0---8---11--0---10--12--13--|
Pm.   .   .   .   .   .   .   .   .   .   .   .   .   .   .   .

Pre Chorus

Guitar 1
D-----------------------------------------------------------------|
A-----------------------------------------------------------------|
F-----------------------------------------------------------------|
C-0-0-0-0-0-0-0-0-3-3-3-3-3-3-3-3-5-5-5-5-5-5-5-5-5-5-5-5-7-7-7-7-|
G-0-0-0-0-0-0-0-0-3-3-3-3-3-3-3-3-5-5-5-5-5-5-5-5-5-5-5-5-7-7-7-7-|
C-0-0-0-0-0-0-0-0-3-3-3-3-3-3-3-3-5-5-5-5-5-5-5-5-5-5-5-5-7-7-7-7-|

Guitar 2
D------------------------------------------------------------------|
A------------------------------------------------------------------|
F-7-7-7-7-7-7-7-7-101010101010101012121212121212121212121214141414-|
C-x-x-x-x-x-x-x-x-x-x-x-x-x-x-x-x-x-x-x-x-x-x-x-x-x-x-x-x-x-x-x-x--|
G-5-5-5-5-5-5-5-5-8-8-8-8-8-8-8-8-10101010101010101010101012121212-|
C------------------------------------------------------------------|

Guitar 1
D-----------------------------------------------------------------|
A-----------------------------------------------------------------|
F-----------------------------------------------------------------|
C-0-0-0-0-0-0-0-0-3-3-3-3-3-3-3-3-5-5-5-5-5-5-5-5-5-5-5-5-7-7-7-7-|
G-0-0-0-0-0-0-0-0-3-3-3-3-3-3-3-3-5-5-5-5-5-5-5-5-5-5-5-5-7-7-7-7-|
C-0-0-0-0-0-0-0-0-3-3-3-3-3-3-3-3-5-5-5-5-5-5-5-5-5-5-5-5-7-7-7-7-|

Guitar 2
D------------------------------------------------------------------|
A------------------------------------------------------------------|
F-7-7-7-7-7-7-7-7-101010101010101012121212121212121212121214141414-|
C-x-x-x-x-x-x-x-x-x-x-x-x-x-x-x-x-x-x-x-x-x-x-x-x-x-x-x-x-x-x-x-x--|
G-5-5-5-5-5-5-5-5-8-8-8-8-8-8-8-8-10101010101010101010101012121212-|
C------------------------------------------------------------------|

Chorus

Guitar 1 & 2
D-----------------------------------------------------------------|
A-----------------------------------------------------------------|
F-----------------------------------------------------------------|
C-8---8---8---8---8---8---8---8---10--10--10--10--10--10--10--10--|
G-8---8---8---8---8---8---8---8---10--10--10--10--10--10--10--10--|
C-8---8---8---8---8---8---8---8---10--10--10--10--10--10--10--10--|

Guitar 1 & 2
D-----------------------------------------------------------------|
A-----------------------------------------------------------------|
F-----------------------------------------------------------------|
C-0---0---0---0---0---0---0---0---0---0---0---0---0---0---0---0---|
G-0---0---0---0---0---0---0---0---0---0---0---0---0---0---0---0---|
C-0---0---0---0---0---0---0---0---0---0---0---0---0---0---0---0---|

Guitar 1 & 2
D-----------------------------------------------------------------|
A-----------------------------------------------------------------|
F-----------------------------------------------------------------|
C-3---3---3---3---3---3---3---3---3---3---3---3---3---3---3---3---|
G-3---3---3---3---3---3---3---3---3---3---3---3---3---3---3---3---|
C-3---3---3---3---3---3---3---3---3---3---3---3---3---3---3---3---|

Guitar 1 & 2
D-----------------------------------------------------------------|
A-----------------------------------------------------------------|
F-----------------------------------------------------------------|
C-5---5---5---5---5---5---5---5---5---5---5---5---5---5---5---5---|
G-5---5---5---5---5---5---5---5---5---5---5---5---5---5---5---5---|
C-5---5---5---5---5---5---5---5---5---5---5---5---5---5---5---5---|

Guitar 1 & 2
D-----------------------------------------------------------------|
A-----------------------------------------------------------------|
F-----------------------------------------------------------------|
C-8---8---8---8---8---8---8---8---10--10--10--10--10--10--10--10--|
G-8---8---8---8---8---8---8---8---10--10--10--10--10--10--10--10--|
C-8---8---8---8---8---8---8---8---10--10--10--10--10--10--10--10--|

Guitar 1 & 2
D-----------------------------------------------------------------|
A-----------------------------------------------------------------|
F-----------------------------------------------------------------|
C-0---0---0---0---0---0---0---0---0---0---0---0---0---0---0---0---|
G-0---0---0---0---0---0---0---0---0---0---0---0---0---0---0---0---|
C-0---0---0---0---0---0---0---0---0---0---0---0---0---0---0---0---|

Guitar 1 & 2
D-----------------------------------------------------------------|
A-----------------------------------------------------------------|
F-----------------------------------------------------------------|
C-3---3---3---3---3---3---3---3---3---3---3---3---3---3---3---3---|
G-3---3---3---3---3---3---3---3---3---3---3---3---3---3---3---3---|
C-3---3---3---3---3---3---3---3---3---3---3---3---3---3---3---3---|

Guitar 1 & 2
D-----------------------------------------------------------------|
A-----------------------------------------------------------------|
F-----------------------------------------------------------------|
C-10--11--12--13--10--11--12--13--10--11--12--13--10--11--12--13--|
G-10--11--12--13--10--11--12--13--10--11--12--13--10--11--12--13--|
C-10--11--12--13--10--11--12--13--10--11--12--13--10--11--12--13--|

Bridge 1

Guitar 2
D-----------------------------------------------------------------|
A-----------------------------------------------------------------|
F-----------------------------------------------------------------|
C-3-2~~~-0~~~-------------------------------------------------3h5-|
G-------------3~~~-2~~~~~-----------------------------------------|
C-------------------------5~~~~~~~~~~~~~~~~~~~~~~~~~~~~~~~~~~-----|

Guitar 1
D-----------------------------------------------------------------|
A-----------------------------------------------------------------|
F--------------------------------------------------9~~~-10-9~~~-7-|
C-----------------------------------------------------------------|
G-----------------------------------------------------------------|
C-----------------------------------------------------------------|

Guitar 2
D-----------------------------------------------------------------|
A-----------------------------------------------------------------|
F-2-----------5~~~-4~~~~~~~~~~~~~~~~~~~~~~~~~~~~~~~~~~~~~~~~~~~~~-|
C---5~~~-3~~~-----------------------------------------------------|
G-----------------------------------------------------------------|
C-----------------------------------------------------------------|

Guitar 2
D-----------------------------------------------------------------|
A-----------------------------------------------------------------|
F-2----------2----------------------------------------------------|
C---5-3-5~~~---3-2~~~---------------3-2~~~-3-5~~~~~~-5~~~~~~~~~~~-|
G---------------------5-3-2~~~-0~~~-------------------------------|
C-----------------------------------------------------------------|

Chorus

Guitar 1 & 2
D-----------------------------------------------------------------|
A-----------------------------------------------------------------|
F-----------------------------------------------------------------|
C-8---8---8---8---8---8---8---8---10--10--10--10--10--10--10--10--|
G-8---8---8---8---8---8---8---8---10--10--10--10--10--10--10--10--|
C-8---8---8---8---8---8---8---8---10--10--10--10--10--10--10--10--|

Guitar 1 & 2
D-----------------------------------------------------------------|
A-----------------------------------------------------------------|
F-----------------------------------------------------------------|
C-0---0---0---0---0---0---0---0---0---0---0---0---0---0---0---0---|
G-0---0---0---0---0---0---0---0---0---0---0---0---0---0---0---0---|
C-0---0---0---0---0---0---0---0---0---0---0---0---0---0---0---0---|

Guitar 1 & 2
D-----------------------------------------------------------------|
A-----------------------------------------------------------------|
F-----------------------------------------------------------------|
C-3---3---3---3---3---3---3---3---3---3---3---3---3---3---3---3---|
G-3---3---3---3---3---3---3---3---3---3---3---3---3---3---3---3---|
C-3---3---3---3---3---3---3---3---3---3---3---3---3---3---3---3---|

Guitar 1 & 2
D-----------------------------------------------------------------|
A-----------------------------------------------------------------|
F-----------------------------------------------------------------|
C-5---5---5---5---5---5---5---5---5---5---5---5---5---5---5---5---|
G-5---5---5---5---5---5---5---5---5---5---5---5---5---5---5---5---|
C-5---5---5---5---5---5---5---5---5---5---5---5---5---5---5---5---|

Guitar 1 & 2
D-----------------------------------------------------------------|
A-----------------------------------------------------------------|
F-----------------------------------------------------------------|
C-8---8---8---8---8---8---8---8---10--10--10--10--10--10--10--10--|
G-8---8---8---8---8---8---8---8---10--10--10--10--10--10--10--10--|
C-8---8---8---8---8---8---8---8---10--10--10--10--10--10--10--10--|

Guitar 1 & 2
D-----------------------------------------------------------------|
A-----------------------------------------------------------------|
F-----------------------------------------------------------------|
C-0---0---0---0---0---0---0---0---0---0---0---0---0---0---0---0---|
G-0---0---0---0---0---0---0---0---0---0---0---0---0---0---0---0---|
C-0---0---0---0---0---0---0---0---0---0---0---0---0---0---0---0---|

Guitar 1 & 2
D-----------------------------------------------------------------|
A-----------------------------------------------------------------|
F-----------------------------------------------------------------|
C-3---3---3---3---3---3---3---3---3---3---3---3---3---3---3---3---|
G-3---3---3---3---3---3---3---3---3---3---3---3---3---3---3---3---|
C-3---3---3---3---3---3---3---3---3---3---3---3---3---3---3---3---|

Guitar 1
D-----------------------------------------------------------------|
A-----------------------------------------------------------------|
F-----------------------------------------------------------------|
C-5---5---5---5---5---5---5---5---5---5---5---5---5---5---5---5---|
G-5---5---5---5---5---5---5---5---5---5---5---5---5---5---5---5---|
C-5---5---5---5---5---5---5---5---5---5---5---5---5---5---5---5---|

Guitar 2
D-----------------------------------------------------------------|
A---------------------------------------------------------13/~~~~-|
F-----------------------------------------------------------------|
C-5---5---5---5---5---5---5---5---5---5---5---5---5---5-----------|
G-5---5---5---5---5---5---5---5---5---5---5---5---5---5-----------|
C-5---5---5---5---5---5---5---5---5---5---5---5---5---5-----------|

Guitar Solo/ Chorus 2

Guitar 1
D-----------------------------------------------------------------|
A-----------------------------------------------------------------|
F-----------------------------------------------------------------|
C-8---8---8---8---8---8---8---8---10--10--10--10--10--10--10--10--|
G-8---8---8---8---8---8---8---8---10--10--10--10--10--10--10--10--|
C-8---8---8---8---8---8---8---8---10--10--10--10--10--10--10--10--|

Guitar 2
D-----------------------------------------------------------------|
A-18~~~~~~~~-17~~~~~~~~-15~~~~~~~-13~~~~~~~~-15~~~~~~~~-17~~~~~~~-|
F-----------------------------------------------------------------|
C-----------------------------------------------------------------|
G-----------------------------------------------------------------|
C-----------------------------------------------------------------|

Guitar 1
D-----------------------------------------------------------------|
A-----------------------------------------------------------------|
F-----------------------------------------------------------------|
C-0---0---0---0---0---0---0---0---0---0---0---0---0---0---0---0---|
G-0---0---0---0---0---0---0---0---0---0---0---0---0---0---0---0---|
C-0---0---0---0---0---0---0---0---0---0---0---0---0---0---0---0---|

Guitar 2
D-----------------------------------------------------------------|
A-15~~~\~~~~~~~~~-------------------------------------------------|
F-----------------14~~~~~~~~~~~~~~~~~~~~~~~~~~~~~~~~~~~~~-12/~~~~-|
C-----------------------------------------------------------------|
G-----------------------------------------------------------------|
C-----------------------------------------------------------------|

Guitar 1
D-----------------------------------------------------------------|
A-----------------------------------------------------------------|
F-----------------------------------------------------------------|
C-3---3---3---3---3---3---3---3---3---3---3---3---3---3---3---3---|
G-3---3---3---3---3---3---3---3---3---3---3---3---3---3---3---3---|
C-3---3---3---3---3---3---3---3---3---3---3---3---3---3---3---3---|

Guitar 2
D-----------------------------------------------------------------|
A-----------------------------------------------------------------|
F-15~~~~~~~~-14~~~~~~~~-12~~~~~~~-10~~~~~~~~-12~~~~~~~~-14~~~~~~~-|
C-----------------------------------------------------------------|
G-----------------------------------------------------------------|
C-----------------------------------------------------------------|

Guitar 1
D-----------------------------------------------------------------|
A-----------------------------------------------------------------|
F-----------------------------------------------------------------|
C-5---5---5---5---5---5---5---5---5---5---5---5---5---5---5---5---|
G-5---5---5---5---5---5---5---5---5---5---5---5---5---5---5---5---|
C-5---5---5---5---5---5---5---5---5---5---5---5---5---5---5---5---|

Guitar 2
D-----------------------------------------------------------------|
A---------------------------------------------------------13/~~~~-|
F-12~~~\~~~~~~~~~-------------------------------------------------|
C-----------------12~~~~~~~~~~~~~~~~~~~~~~~~~~~~~~~~~~~~~---------|
G-----------------------------------------------------------------|
C-----------------------------------------------------------------|

Guitar 1
D-----------------------------------------------------------------|
A-----------------------------------------------------------------|
F-----------------------------------------------------------------|
C-8---8---8---8---8---8---8---8---10--10--10--10--10--10--10--10--|
G-8---8---8---8---8---8---8---8---10--10--10--10--10--10--10--10--|
C-8---8---8---8---8---8---8---8---10--10--10--10--10--10--10--10--|

Guitar 2
D-----------------------------------------------------------------|
A-18~~~~~~~~-17~~~~~~~~-15~~~~~~~-13~~~~~~~~-15~~~~~~~~-17~~~~~~~-|
F-----------------------------------------------------------------|
C-----------------------------------------------------------------|
G-----------------------------------------------------------------|
C-----------------------------------------------------------------|

Guitar 1
D-----------------------------------------------------------------|
A-----------------------------------------------------------------|
F-----------------------------------------------------------------|
C-0---0---0---0---0---0---0---0---0---0---0---0---0---0---0---0---|
G-0---0---0---0---0---0---0---0---0---0---0---0---0---0---0---0---|
C-0---0---0---0---0---0---0---0---0---0---0---0---0---0---0---0---|

Guitar 2
D-----------------------------------------------------------------|
A-15~~~\~~~~~~~~~-----------------------------------------15/~~~~-|
F-----------------14~~~~~~~~~~~~~~~~~~~~~~~~~~~~~~~~~~~~~---------|
C-----------------------------------------------------------------|
G-----------------------------------------------------------------|
C-----------------------------------------------------------------|

Guitar 1
D-----------------------------------------------------------------|
A-----------------------------------------------------------------|
F-----------------------------------------------------------------|
C-3---3---3---3---3---3---3---3---3---3---3---3---3---3---3---3---|
G-3---3---3---3---3---3---3---3---3---3---3---3---3---3---3---3---|
C-3---3---3---3---3---3---3---3---3---3---3---3---3---3---3---3---|

Guitar 2
D------------------------17~~~~~~---------------------------------|
A-20~~~~~~~~~~~~~~~~~~~~---------17h-18p-17~~~~~~-----------------|
F-------------------------------------------------19~~~\~~~~~~~~~-|
C-----------------------------------------------------------------|
G-----------------------------------------------------------------|
C-----------------------------------------------------------------|

Guitar 1
D-----------------------------------------------------------------|
A-----------------------------------------------------------------|
F-----------------------------------------------------------------|
C-5~~~------------5~~~------------5~~~------------5~~~------------|
G-5~~~------------5~~~------------5~~~------------5~~~------------|
C-5~~~------------5~~~------------5~~~------------5~~~------------|

Guitar 2 (tremolo or shred)
D-----------------------------------------------------------------|
A-----------------------------------------------------------------|
F---------------------------------15--15--15--15--17--17--17--17--|
C-17--17--17--17--19--19--19--19----------------------------------|
G-----------------------------------------------------------------|
C-----------------------------------------------------------------|

Bridge 2

Guitar 1
D-----------------------------------------------------------------|
A-----------------------------------------------------------------|
F-----------------------------------------------------------------|
C-0-0-0-0-0-0-0-0-3-3-3-3-3-3-3-3-5-5-5-5-5-5-5-5-5-5-5-5-7-7-7-7-|
G-0-0-0-0-0-0-0-0-3-3-3-3-3-3-3-3-5-5-5-5-5-5-5-5-5-5-5-5-7-7-7-7-|
C-0-0-0-0-0-0-0-0-3-3-3-3-3-3-3-3-5-5-5-5-5-5-5-5-5-5-5-5-7-7-7-7-|

Guitar 2 (tremolo or shred)
D-----------------------------------------------------------------|
A-----------------------------------------------------------------|
F-19--19--19--19--19--19--19--19--19--19--19--19--19--19--19--19--|
C-----------------------------------------------------------------|
G-----------------------------------------------------------------|
C-----------------------------------------------------------------|

Guitar 1
D-----------------------------------------------------------------|
A-----------------------------------------------------------------|
F-----------------------------------------------------------------|
C-0-0-0-0-0-0-0-0-3-3-3-3-3-3-3-3-5-5-5-5-5-5-5-5-5-5-5-5-7-7-7-7-|
G-0-0-0-0-0-0-0-0-3-3-3-3-3-3-3-3-5-5-5-5-5-5-5-5-5-5-5-5-7-7-7-7-|
C-0-0-0-0-0-0-0-0-3-3-3-3-3-3-3-3-5-5-5-5-5-5-5-5-5-5-5-5-7-7-7-7-|

Guitar 2 (tremolo or shred)
D-----------------------------------------------------------------|
A-----------------------------------------------------------------|
F-19--19--19--19--19--19--19--19--19--19--19--19--19--19--19--19--|
C-----------------------------------------------------------------|
G-----------------------------------------------------------------|
C-----------------------------------------------------------------|

Guitar 1
D-----------------------------------------------------------------|
A-----------------------------------------------------------------|
F-----------------------------------------------------------------|
C-0-0-0-0-0-0-0-0-3-3-3-3-3-3-3-3-5-5-5-5-5-5-5-5-5-5-5-5-7-7-7-7-|
G-0-0-0-0-0-0-0-0-3-3-3-3-3-3-3-3-5-5-5-5-5-5-5-5-5-5-5-5-7-7-7-7-|
C-0-0-0-0-0-0-0-0-3-3-3-3-3-3-3-3-5-5-5-5-5-5-5-5-5-5-5-5-7-7-7-7-|

Guitar 2
D------------------------------------------------------------------|
A------------------------------------------------------------------|
F-7-7-7-7-7-7-7-7-101010101010101012121212121212121212121214141414-|
C-x-x-x-x-x-x-x-x-x-x-x-x-x-x-x-x-x-x-x-x-x-x-x-x-x-x-x-x-x-x-x-x--|
G-5-5-5-5-5-5-5-5-8-8-8-8-8-8-8-8-10101010101010101010101012121212-|
C------------------------------------------------------------------|

Guitar 1
D-----------------------------------------------------------------|
A-----------------------------------------------------------------|
F-----------------------------------------------------------------|
C-0-0-0-0-0-0-0-0-3-3-3-3-3-3-3-3-5-5-5-5-5-5-5-5-5-5-5-5-7-7-7-7-|
G-0-0-0-0-0-0-0-0-3-3-3-3-3-3-3-3-5-5-5-5-5-5-5-5-5-5-5-5-7-7-7-7-|
C-0-0-0-0-0-0-0-0-3-3-3-3-3-3-3-3-5-5-5-5-5-5-5-5-5-5-5-5-7-7-7-7-|

Guitar 2
D------------------------------------------------------------------|
A------------------------------------------------------------------|
F-7-7-7-7-7-7-7-7-101010101010101012121212121212121212121214141414-|
C-x-x-x-x-x-x-x-x-x-x-x-x-x-x-x-x-x-x-x-x-x-x-x-x-x-x-x-x-x-x-x-x--|
G-5-5-5-5-5-5-5-5-8-8-8-8-8-8-8-8-10101010101010101010101012121212-|
C------------------------------------------------------------------|

Outro

Guitar 1 & 2
D-----------------------------------------------------------------|
A-----------------------------------------------------------------|
F-----------------------------------------------------------------|
C-0---2---3---0---5---7---0---7---8---0---8---11--0---10--12--13--|
G-0---2---3---0---5---7---0---7---8---0---8---11--0---10--12--13--|
C-0---2---3---0---5---7---0---7---8---0---8---11--0---10--12--13--|

Guitar 1 & 2
D-----------------------------------------------------------------|
A-----------------------------------------------------------------|
F-----------------------------------------------------------------|
C-0---0---0---0---------------------------------------------------|
G-0---0---0---0---------------------------------------------------|
C-0---0---0---0---------------------------------------------------|

Tab Legend
h  -  hammer-on
p  -  pull-off
/  -  slide up
\  -  slide down
ps/-  pickslide up
ps\-  pickslide down
~  -  let ring
pm.-  palm mute
b  -  bend
r  -  return from bend
*  -  harmonic
x  -  dead note
^ -  Whammy bar

Thatís it! Check out my cover, and tell me how I did. Thanks, oh and one last 
thing... ROCK OUT!!!!





Comments


Popular Fair To Midland tabs & chords
The Wife The Kids And The White Picket Fence Chords
The Wife The Kids And The White Picket Fence 2 Chords
Granny Niblo Tabs
Granny Niblo 1 Tabs
Informative Timeline Tabs
Upgradebrigade Tabs
Upgradebrigade 1 Tabs
A Wolf Decends Upon The Spanish Sahara Ukulele
A Wolf Descends Upon The Spanish Sahara Ukulele
Dance Of The Manatee Ukulele


Song lyrics



↑ Back to top | Tablatures and chords are parodies/interpretations of the original songs. You may use it for private study, scholarship, research or language learning purposes only
© 2014 AZChords.com Contact us | Privacy policy | DMCA | Add/correct tabs | Request tabs | Top 50 tabs