» » »

Fair To Midland, Granny Niblo Tabs (ver.2)

Artists:  A B C D E F G H I J K L M N O P Q R S T U V W X Y Z # 

Granny Niblo Tabs (ver.2)

Fair To Midland Tabs
 Rating:
4/5 (4 votes)
Granny Niblo lessons Tabs too difficult? Try these video lessons and learn fast
1
                Granny Niblo
Fair To Midland
inter.funda.stifle

INTRO
Guitar 1 (w/ high gain, muffled)
D------------------------------------------------------------|
A------------------------------------------------------------|
G------------------------------------------------------------|
C-7--------2---------5--------0------------------------------|
G-7--------2---------5--------0------------------------------|
C-7--------2---------5--------0------------------------------|

Guitar 2 (muffled, clean)
D------------------------------------------------------------|
A------------------------------------------------------------|
G---3-2-0-----3-2-0-----3-2-2h3---3-2-2h3--------------------|
C--2-2-2-2---2-2-2-2---2-2-2-----2-2-2-----------------------|
G------------------------------------------------------------|
C------------------------------------------------------------|

VERSE
Guitar 1 (w/ low gain, tremolo)
D------------------------------------------------------------|
A------------------------------------------------------------|
G------------------------------------------------------------|
C-7-------2--------5-------0---------------------------------|
G-7-------2--------5-------0---------------------------------|
C-7-------2--------5-------0---------------------------------|

Guitar 2 (w/ low distortion
D------------------------------------------------------------|
A------------------------------------------------------------|
G---3-2-0-----3-2-0-----3-2-2h3---3-2-2h3--------------------|
C--2-2-2-2---2-2-2-2---2-2-2-----2-2-2-----------------------|
G------------------------------------------------------------|
C------------------------------------------------------------|

PRE-CHORUS
Guitar 1 (high gain)
D------------------------------------------------------------|
A------------------------------------------------------------|
G------------------------------------------------------------|
C-3-3-3-3---3-3-3-3---3-3---5-5-5-5---5-5-5-5---5-5----------|
G-3-3-3-3---3-3-3-3---3-3---5-5-5-5---5-5-5-5---5-5----------|
C-3-3-3-3---3-3-3-3---3-3---5-5-5-5---5-5-5-5---5-5----------|

Guitar 2 (low gain)
D------------------------------------------------------------|
A------------------------------------------------------------|
G-3-------------------3------5--------3----------------------|
C------------------------------------------------------------|
G------------------------------------------------------------|
C------------------------------------------------------------|

D------------------------------------------------------------|
A------------------------------------------------------------|
G-----2---3------2---3------2---3-------3-----5--------------|
C-2-0--------2-0--------2-0--------2-0-----------------------|
G------------------------------------------------------------|
C------------------------------------------------------------|

CHORUS
Guitar 1 (high gain)
D------------------------------------------------------------|
A------------------------------------------------------------|
G------------------------------------------------------------|
C-7------5------3--------------------------------------------|
G-7------5------3--------------------------------------------|
C-7------5------3--7----------5---------3---------2-5-2------|

Guitar 2 (very light, almost inaudible until end riffs)
D------------------------------------------------------------|
A------------------------------------------------------------|
G---------2h3p2------2h3p2p0----2h3p2p0---2h3p2p0-----2h3p2--|
C------------------------------------------------------------|
G------------------------------------------------------------|
C------------------------------------------------------------|

OUTRO
D------------------------------------------------------------|
A------------------------------------------------------------|
G---2h3p2---2h3p2---2h3p2---2h3p2----------------------------|
C------------------------------------------------------------|
G------------------------------------------------------------|
C-7-------5-------3-------2----------------------------------|

Intro x2
Verse x4
Pre-Chorus x2
Bridge (no guitar)
Chorus x2
Intro x1
Verse x4
Pre-Chorus x2
Bridge
Chorus x4
Outro x10, then fade out

Lyrics
Here is the deal, you must find guesses in this room.
Cut around the block,
shake in the boots we stocked,
I'll turn your onset to off.
'Cause with patience and much practice of keeping all this clean.
wipe the floor with rust,
Abigail's lost touch and it makes for scattered debris.

For nine years and square stars, tonight we have it all made.
For nine months, lets make much, tonight we have it all made.
Tonight we have it all made.

All the bells were out of unison.
I knew not why the latitude carried on and all of our signs were made to pray to synagogues.
I was built on binds of paperback,
I knew not if the stories were told or taught.
And all of our knees were carved in sand from Leningrad.

"On", said the rod and reel, and "not a drop to drink".
"But we do", as we say, "and I'll do as I've said
until my tongue parts the sea."
"On", said that self-defense texture of the reed.
"and it climbs, and it sings"

For nine years and square stars, tonight we have it all made.
For nine months, lets make much, tonight we have it all made.
Tonight we have it all made.

All the bells were out of unison.
I knew not why the latitude carried on and all of our signs were made to pray to synagogues.
I was built on binds of paperback,
I knew not if the stories were told or taught.
And all of our knees were carved in sand from Leningrad.

All the bells were out of unison.
I knew not why the latitude carried on and all of our signs were made to pray to synagogues.
I was built on binds of paperback,
I knew not if the stories were told or taught.
And all of our knees were carved in sand from Leningrad.

NOTES:
-For the intro and Chorus i didn't tab all the notes down, just the first one because 
rhythm shouldn't be to hard to find.

-There is only 1 guitarist in Fair to midland, but i used "Guitar 1" and "Guitar 2" to 
the effects and different riffs (cause its really hard to play both parts in the intro 
verse)

-Guitar 2 in the chorus is just a guide to what notes to play, beacause there is 
there, its just barely audible and comes in and out sporadically.
            
Submit corrections

comments powered by Disqus
↑ Back to top | Fair To Midland Tabs for Granny Niblo. Lyrics for acoustic guitar and electric guitar. 1 Tablatures and chords are parodies/interpretations of the original songs. You may use it for private study, scholarship, research or language learning purposes only