» » »

Fair To Midland, Dance Of Manatee Bass tabs (ver.1)

Artists:  A B C D E F G H I J K L M N O P Q R S T U V W X Y Z # 

Dance Of Manatee Bass tabs (ver.1)

Fair To Midland Tabs
 Rating:
4.2/5 (5 votes)
Dance Of Manatee lessons Tabs too difficult? Try these video lessons and learn fast
                -----------------------------------------------------------------------------
-----------------------------------------------------------------------------


Tuning: CGCF

Note: This is my first tab. I'm not quite sure about the clean part. Be free to comment/correct.


Intro / Riff 1

F|-------------------|
C|-------------------|
G|-------------------|
C|--5/10--1/8--rest--| x4

Verse

F|-------------------------------------------------------------|
C|--3-333~--3h5-----------------------5-555~--5h7\3-333~--3h5--|
G|--------------3-333~--3h5\1-113-3h5--------------------------|
C|-------------------------------------------------------------|

F|-------------------------------------------532--|
C|-------------------------5-555~--5h7\3-333------|
G|--3-333~--3h5\1-113-3h5-------------------------|
C|------------------------------------------------| x2

F|----------------------|
C|----------------------|
G|--3-333~--3h5\1-113~--|
C|----------------------|

Chorus

F|------------------------------------------------------------|
C|------------------------------------------------------------|
G|------------------------------------------------------------|
C|--55-5555-55-/-1010-10101010-1010--11-1111-11-/-33-3333-33--| x2

10 - ten
11 - one's

Riff 1 x2
Verse
Chorus x2

F|------------|
C|------------|
G|------------|
C|--3.-3.-3.--|

Breakdown

F|-------------|
C|-------------|
G|-------------|
C|--0-1-3-456--| x2

F|---------------------|
C|---------------------|
G|---------------------|
C|--0.1.1h3.-3h4.5h6.--| x8

Clean part

F|----------------------|
C|----------------------|
G|----------------------|
C|--5~---10~---1~---3~--| x4

F|----------------|
C|----------------|
G|----------------|
C|--3.3.3.3.3.3.--|

Chorus x4

Ending

F|---------------|
C|---------------|
G|---------------|
C|--5-3-5-3-875--|


| /  slide up
| \  slide down
| h  hammer-on
| p  pull-off
| ~  vibrato
| +  harmonic
| x  Mute note
| .  Mute

=============================================================================
            
Submit corrections

comments powered by Disqus
↑ Back to top | Fair To Midland Bass for Dance Of Manatee. Lyrics for acoustic guitar and electric guitar. Tablatures and chords are parodies/interpretations of the original songs. You may use it for private study, scholarship, research or language learning purposes only