» » »

Amarillo Sleeps On My Pillow Tabs (ver.1)

Artists:  A B C D E F G H I J K L M N O P Q R S T U V W X Y Z # 

Amarillo Sleeps On My Pillow Tabs (ver.1)

Fair To Midland
Rating:
0/5 (0 votes)

Hard to play? Try these video lessons and learn fast.
                -------------------------------------------------------------------------------
-------------------------------------------------------------------------------

Tuning: CGCGCC

Tempo: 150bpm

Intro riff

C|--------------------------------|
C|--------------------------------|
G|--------------------------------|
C|-7-7-2-2-x-x-2--4--2--4-4-2-----|
G|-7-7-2-2-x-x-2--4--2--4-4-2-----|
C|-7-7-2-2-x-x-2--4--2--4-4-2-----|


C|--------------------------------|
C|--------------------------------|
G|--------------------------------|
C|-7-7-2-2-x-x-2--4--2--4-4-2-----|
G|-7-7-2-2-x-x-2--4--2--4-4-2-----|
C|-7-7-2-2-x-x-2--4--2--4-4-2-----|


C|----------------------------------------------------------|
C|----------------------------------------------------------|
G|----------------------------------------------------------|
C|-7-7-2-2-x-x-2--4--2--4-4-2-2---------------9-2--9-4------|
G|-7-7-2-2-x-x-2--4--2--4-4-2-2---------------9-2--9-4------|
C|-7-7-2-2-x-x-2--4--2--4-4-2-2-(let ring)------9-2--9-4----|


Verses (Not sure about the banjos and other instruments.)
C|---------------------------------------------------------------------------|
C|---------------------------------------------------------------------------|
G|---------------------------------------------------------------------------|
C|--9-2---9-4----------------------------------------------------------------|
G|--9-2---9-4----------------------------------------------------------------|
C|--9-2---9-4----------------------------------------------------------------|

Chorus (A little unsure)

C|-----------------------------------------------------------------------------|
C|-----------------------------------------------------------------------------|
G|-----------------------------------------------------------------------------|
C|-----------------------------------------------------------------------------|
G|-2-4-6----3-5-7-----4-6-8-----2-4-6------------------------------------------|
C|-2h4h6-x5-3h5h7 x5-4h6h8-x5--2h4h6x5----REPEAT-------------------------------|

Back into verse

C|---------------------------------------------------------------------------|
C|---------------------------------------------------------------------------|
G|---------------------------------------------------------------------------|
C|-9-2--9-4------------------------------------------------------------------|
G|-9-2--9-4------------------------------------------------------------------|
C|-9-2--9-4------------------------------------------------------------------|

Guitar solo, RHYTHM
C|---------------------------------------------------------------------------------|
C|---------------------------------------------------------------------------------|
G|---------------------------------------------------------------------------------|
C|---------------------------------------------------------------------------------|
G|-----------------------------4-------------------------------------------6-------|
C|-2h4h6-2h4h6-2h4h6-2h4h6-2h4---6-4-2---4-6-8--4-6-8--4-6-8--4-6-8--4-6-8--8-6-4--|

C|-16-16-16-16-16-16-16-16-16-16-16-16-16--16b-16b-16b-16b-16b--21-21-21-22-22-22b-|
C|-(slowly bend upwards while tremolo picking to a full bend)----------------------|
G|--(then bend and release 16 5 times)---------------------------------------------|
C|---------------------------------------------------------------------------------|
G|---------------------------------------------------------------------------------|
C|---------------------------------------------------------------------------------|

There is also another guitar that I can't make out playing a similar thing.
C|---------------------------------------------------------------------------|
C|---------------------------------------------------------------------------|
G|---------------------------------------------------------------------------|
C|---------------------------------------------------------------------------|
G|---------------------------------------------------------------------------|
C|---------------------------------------------------------------------------|


final verse (Not sure about the banjos and other instruments.)
C|---------------------------------------------------------------------------|
C|---------------------------------------------------------------------------|
G|---------------------------------------------------------------------------|
C|--9-2---9-4----------------------------------------------------------------|
G|--9-2---9-4----------------------------------------------------------------|
C|--9-2---9-4----------------------------------------------------------------|

Last Chorus (A little unsure)

C|---------------------------------------------------------------------------|
C|---------------------------------------------------------------------------|
G|---------------------------------------------------------------------------|
C|---------------------------------------------------------------------------|
G|-2-4-6----3-5-7----4-6-8-----2-4-6-----------------------------------------|
C|-2h4h6-x5-3h5h7 x5-4h6h8-x5--2h4h6x5----REPEAT-----------------------------|

Repeat chorus then end on


C|---------------------------------------------------------------------------|
C|---------------------------------------------------------------------------|
G|---------------------------------------------------------------------------|
C|-9-2--9-4--9-6-4-2---------------------------------------------------------|
G|-9-2--9-4--9-6-4-2---------------------------------------------------------|
C|-9-2--9-4--9-6-4-2---------------------------------------------------------|

There we go, I'm sure most of it's right. if I get more time I'll post any corrections 
but feel free to correct me on anything you think is wrong... enjoy all
            
Hard to play? Try these video lessons and learn fast. | Correct




comments powered by Disqus
↑ Back to top | Tablatures and chords are parodies/interpretations of the original songs. You may use it for private study, scholarship, research or language learning purposes only