» » »

Your Retro Career Melted Bass tabs (ver.1)

Artists:  A B C D E F G H I J K L M N O P Q R S T U V W X Y Z # 

Your Retro Career Melted Bass tabs (ver.1)

Faint
Rating:
0/5 (0 votes)

Hard to play? Try these video lessons and learn fast.
                I'm not ENTIRELY sure there's even a bass part to this song, being it's mostly Synth and 
 But if there is, this is what I believe it sounds like.

~ let note ring
. eighth note

**wait for the beat to drop**

Intro
E-----------------|-----------------|
D---5--5-5--5---8-|---1--1-1--1-3-0-|
A-----------------|-----------------|x2
D-5---5-5-----8---|-1---1-1---------|

Bridge 1
E---------------------|---------------------|
D---5-----------------|---5-----------------|
A---------6-5-6-5.3.5-|---------6-5-6-5.3.5-|x2
D-5---5.8-------------|-5---5.8-------------|


Verse 1
E-----------------|-----------------|
D---5--5-5--5---8-|---1--1-1--1-3-0-|
A-----------------|-----------------|x4
D-5---5-5-----8---|-1---1-1---------|

Bridge 2
E---------------------|---------------------|
D---5-----------------|---5-----------------|
A---------6-5-6-5.3.5-|---------6-5-6-5.3.5-|x2
D-5---5.8-------------|-5---5.8-------------|

Pre-chorus
E-----------------|-----------------|
D---5--5-5--5---8-|---1--1-1--1-3-0-|
A-----------------|-----------------|x2
D-5---5-5-----8---|-1---1-1---------|

Chorus  "Your retro career m-m-m-melted..."
E------------------------------------|
D------------------------------------|
A------------------------------------|x2
D-55555555-88888888-1111111111111111-|

Bridge 3
E---------------------|---------------------|
D---5-----------------|---5-----------------|
A---------6-5-6-5.3.5-|---------6-5-6-5.3.5-|x2
D-5---5.8-------------|-5---5.8-------------|

Verse 2
E-----------------|-----------------|
D---5--5-5--5---8-|---1--1-1--1-3-0-|
A-----------------|-----------------|x2
D-5---5-5-----8---|-1---1-1---------|

Bridge 4
*Drums and Vocals only*
Fleshtone shards fly by wild!
They fill a plastic bag with the parts inside.
The bag got dumped, a town nearby.
They reassembled fast as his voice dropped hard...

Chorus  "Your retro career m-m-m-melted..."
E------------------------------------|
D------------------------------------|
A------------------------------------|x6
D-55555555-88888888-1111111111111111-|

Outro
E------|
D------|
A------|
D-5~~~~|
            
Hard to play? Try these video lessons and learn fast. | Correct




comments powered by Disqus
↑ Back to top | Tablatures and chords are parodies/interpretations of the original songs. You may use it for private study, scholarship, research or language learning purposes only