» » »

Worked Up So Sexual Bass tabs (ver.1)

Artists:  A B C D E F G H I J K L M N O P Q R S T U V W X Y Z # 

Worked Up So Sexual Bass tabs (ver.1)

Faint
Rating:
5/5 (1 vote)

Hard to play? Try these video lessons and learn fast.
                Drop low E to D.

(0:21)
G|----------------|----------------|----------------|----------------|
D|----------------|----------------|----------------|----------------|
A|----------------|----------------|----------------|----------------|
D|9-9-9-9-9-9-9-9-|5-5-5-5-5-5-5-5-|7-7-7-7-7-7-7-7-|0-0-0-0-0-0-0-0-|

G|----------------|----------------|----------------|----------------|
D|----------------|----------------|----------------|----------------|
A|----------------|----------------|----------------|----------------|
D|4-4-4-4-4-4-4-4-|5-5-5-5-5-5-5-5-|7-7-7-7-7-7-7-7-|0-0-0-0-0-0-0-0-|

(0:56)
G|----------------|----------------|--7---7---7---7-|--9---9---9---9-|
D|--9---9---9---9-|--5---5---5---5-|----------------|----------------|
A|----------------|----------------|5---5---5---5---|7---7---7---7---|
D|9---9---9---9---|5---5---5---5---|----------------|----------------|

(1:07)
G|----------------|----------------|----------------|----------------|
D|----------------|----------------|----------------|----------------|
A|----------------|----------------|----------------|----------------|
D|9-9-------------|5-5-------------|7-7-------------|0-0-------------|

G|----------------|----------------|----------------|----------------|
D|----------------|----------------|----------------|----------------|
A|----------------|----------------|----------------|----------------|
D|4-4-------------|5-5-------------|7-7-------------|0-0-------------|

(1:24)
G|----------------|----------------|----------------|----------------|
D|----------------|----------------|----------------|----------------|
A|----------------|----------------|----------------|----------------|
D|9-------4-------|5---------------|7---------------|0---------------|

(1:30)
G|----------------|----------------|----------------|----------------|
D|----------------|----------------|----------------|----------------|
A|----------------|----------------|----------------|----------------|
D|9-9-9-9-9-9-9-9-|5-5-5-5-5-5-5-5-|7-7-7-7-7-7-7-7-|0-0-0-0-0-0-0-0-|

G|----------------|----------------|----------------|----------------|
D|----------------|----------------|----------------|----------------|
A|----------------|----------------|----------------|----------------|
D|4-4-4-4-4-4-4-4-|5-5-5-5-5-5-5-5-|7-7-7-7-7-7-7-7-|0-0-0-0-0-0-0-0-|

(1:41)
G|----------------|----------------|--7---7---7---7-|--9---9---9---9-|
D|--9---9---9---9-|--5---5---5---5-|----------------|----------------|
A|----------------|----------------|5---5---5---5---|7---7---7---7---|
D|9---9---9---9---|5---5---5---5---|----------------|----------------|

(1:53) - Rest for a rediculous drum solo

(2:04) 
G|----------------|----------------|----------------|----------------|
D|----------------|----------------|----------------|----------------|
A|----------------|----------------|----------------|----------------|
D|9-9-9-9-9-9-9-9-|5-5-5-5-5-5-5-5-|7-7-7-7-7-7-7-7-|0-0-0-0-0-0-0-0-|

G|----------------|----------------|----------------|----------------|
D|----------------|----------------|----------------|----------------|
A|----------------|----------------|----------------|----------------|
D|4-4-4-4-4-4-4-4-|5-5-5-5-5-5-5-5-|7-7-7-7-7-7-7-7-|0-0-0-0-0-0-0-0-|

(2:16)
G|----------------|----------------|--7---7---7---7-|--9---9---9---9-|
D|--9---9---9---9-|--5---5---5---5-|----------------|----------------|
A|----------------|----------------|5---5---5---5---|7---7---7---7---|
D|9---9---9---9---|5---5---5---5---|----------------|----------------|
            
Hard to play? Try these video lessons and learn fast. | Correct




comments powered by Disqus
↑ Back to top | Tablatures and chords are parodies/interpretations of the original songs. You may use it for private study, scholarship, research or language learning purposes only