» » »

Faint, Take Me To The Hospital Bass tabs (ver.1)

Artists:  A B C D E F G H I J K L M N O P Q R S T U V W X Y Z # 

Take Me To The Hospital Bass tabs (ver.1)

Faint Tabs
 Rating:
4/5 (4 votes)
Take Me To The Hospital lessons Tabs too difficult? Try these video lessons and learn fast
1
                ~ let note ring
\ slide down
* stop note from ringing
h hammer on
p pull off


Intro
G--------------------|
D--------------------|
A--------------------|
E-5---5-5---5---5--3-|x6

Bridge 1
G------------------|--------------------|
D------------------|--------------------|
A------------------|--------------------|
E-5---5-5---5---5-5|-5---5-5---5---5-5-5|

Verse 1
G---------------------------------------------|
D---------------------------------------------|
A---------------------------------------------|
E-5---5-5---3---3-3---3---3-3----5---5-5--5-5-|

G----------------------------------|
D----------------------------------|
A----------------------------------|
E-5---5-5---3---3-3---3---3-3----5-|

Chorus
G---------------------------------------|----------------------------------|
D---------------------------------------|----------------------------------|
A---------------------------------------|----------------------------------|
E-12\5-0--12\0-0---1---0--5--0h5-5--5-5-|-5--0h5-5--5-0--0-0-0--0-1--0--5~~|

Verse 2
G--------------------|------------------------|
D--------------------|------------------------|
A--------------------|------------------------|
E-5---5-5---5---5-5--|-1---1-1---0---1-1-1--5~|

Chorus
G---------------------------------------|----------------------------------|
D---------------------------------------|----------------------------------|
A---------------------------------------|----------------------------------|
E-12\5-0--12\0-0---1---0--5--0h5-5--5-5-|-5--0h5-5--5-0--0-0-0--0-1--0--5~~|

Bridge 2
G---------------------------|
D---------------------------|
A-0*--3p00*--5p00*--7p00*--0|
E---------------------------|X4

Verse 3
G----------------------------------------------------------|
D----------------------------------------------------------|
A-0-00*--0-00*--0-00*--0-00*--0----------------------------|
E-------------------------------33*--3-33*--3-33*--3-33*--3|

G----------------------------------------------|
D----------------------------------------------|
A-00*--0-00*--0-00*--0-00*--0-00*--0-00*--0-0*-|
E----------------------------------------------|


BridGe 3
G------------------------------|
D----------------------------5-|
A-0-0-0003-0-0005-0-0007-0-7---|
E------------------------------|x5

G------------------------------|
D----------------------------5~|
A-0-0-0003-0-0005-0-0007-0-7---|
E------------------------------|

Alt. Chorus
G-------------------------------|
D-------------------------------|
A-------------------------------|
E-5---5-0~--7---7-0~--1---0---5~|X2

Outro
G----------------------------------------------------------------------|
D----------------------------------------------------------------------|
A----------------------------------------------------------------------|
E-5555555555555555-0000000000000000-11111111-00000000-5555555555555555-|X3

G----------------------------------------------------------------------|
D----------------------------------------------------------------------|
A----------------------------------------------------------------------|
E-5555555555555555-0000000000000000-11111111-00000000-5555555555555555~|
            
Submit corrections

comments powered by Disqus
↑ Back to top | Faint Bass for Take Me To The Hospital. Lyrics for acoustic guitar and electric guitar. 1 Tablatures and chords are parodies/interpretations of the original songs. You may use it for private study, scholarship, research or language learning purposes only