» » »

Paranoiattack Bass tabs (ver.1)

Artists:  A B C D E F G H I J K L M N O P Q R S T U V W X Y Z # 

Paranoiattack Bass tabs (ver.1)

Faint
Rating:
0/5 (0 votes)

Hard to play? Try these video lessons and learn fast.
                THE FAINT - PARANOIATTACK


Mainly synths; still, the intro is fun to play...
Feel free to correct it, or add more synth parts



Intro
G|---2244-------------------|
D|-44----22-44--------------|
A|------------4422----------| x4
E|----------------55--------|



Chorus
G|--------------------------|
D|---4----4-----6---2-------|
A|--------------------------| x2
E|----2----2---4-----0------|



Synth parts (if you're bored)

Verse theme
G|--------------------------|
D|--4---44--2---------------|
A|--------------------------|
E|--------------------------|

Chorus theme
G|--21-------21------------|
D|4---424--4---426---------|
A|-------------------------|
E|-------------------------|

G|--42-------21-------------|
D|6---646--4---424----------|
A|--------------------------|
E|--------------------------|
            
Hard to play? Try these video lessons and learn fast. | Correct




comments powered by Disqus
↑ Back to top | Tablatures and chords are parodies/interpretations of the original songs. You may use it for private study, scholarship, research or language learning purposes only