» » »

Faint, Dropkick The Punks Bass tabs (ver.1)

Artists:  A B C D E F G H I J K L M N O P Q R S T U V W X Y Z # 

Dropkick The Punks Bass tabs (ver.1)

Faint Tabs
Rating:
5/5 (1 vote)
Dropkick The Punks lessons Tabs too difficult? Try these video lessons and learn fast
                THE FAINT - DROP KICK THE PUNKS



Intro
G|--------------------------|
D|--------------------------|
A|-03333-33-3-33--0---------| x6
E|--------------------------|



Chorus
G|---5-----------5----------|
D|----4-03-50-----4-03-65---|
A|-3-----------3------------| x2
E|--------------------------|



Bridge
G|----------------8---------|
D|-----------4--------------|
A|-3----2-------------------| x2
E|--------------------------|



Verse
G|--------------------------|
D|--------------------------|
A|-3-33-3-3-33--------------| x3
E|--------------------------|

G|--------------------------|
D|--------------------------|
A|-3-33---------------------| x1
E|--------------------------|



Chorus
G|---5-----------5----------|
D|----4-03-50-----4-03-65---|
A|-3-----------3------------| x2
E|--------------------------|



Verse
G|--------------------------|
D|--------------------------|
A|-3-33-3-3-33--------------| x3
E|--------------------------|

G|--------------------------|
D|--------------------------|
A|-3-33---------------------| x1
E|--------------------------|



Chorus
G|---5-----------5----------|
D|----4-03-50-----4-03-65---|
A|-3-----------3------------| x2
E|--------------------------|



Bridge
G|--------------------------|
D|--------------------------|
A|-3333333333333333---------| x22
E|--------------------------|



Solo
G|--------------------------|
D|------------11111---------|
A|-33333333333--------------| x1
E|--------------------------|

G|--------------------------|
D|------------44444---------|
A|-33333333333--------------| x1
E|--------------------------|

G|------------33333---------|
D|--------------------------|
A|-33333333333--------------| x1
E|--------------------------|

G|--------------------------|
D|-4444444433311100---------|
A|--------------------------| x1
E|--------------------------|



Chorus
G|---5-----------5----------|
D|----4-03-50-----4-03-65---|
A|-3-----------3------------| x2
E|--------------------------|
            
Submit corrections

comments powered by Disqus
↑ Back to top | Faint Bass for Dropkick The Punks. Lyrics for acoustic guitar and electric guitar. Tablatures and chords are parodies/interpretations of the original songs. You may use it for private study, scholarship, research or language learning purposes only