» » »

Acting: On-Campus Television Tabs (ver.1)

Artists:  A B C D E F G H I J K L M N O P Q R S T U V W X Y Z # 

Acting: On-Campus Television Tabs (ver.1)

Faint
Rating:
0/5 (0 votes)

Hard to play? Try these video lessons and learn fast.
                Another one off the Faint's Media. I'll be trying to tab most of this album for anyone interested.
*Intro* (Campus is getting bigger and they're working on it all the time!)
------------------------------|
------------------------------|
-----------------------4~-----|
--2-2------------------4~-----|
--2-2------------------2~-----|
--0-0-------------------------|

*Verse* (distorted)(On the 3rd time the Bm is counted twice.) 
  Em   G     C    Bm   
-------------------------|
-------------------------|
------------5-5--4-4-----|
--2-2--5-5--5-5--4-4-----|
--2-2--5-5--3-3--2-2-----|
--0-0--3-3---------------|

*Transition*
A--5/7/5~-5/14-------------|

*Riff* (Over verse)
e--------------------------|
B--6b--6b--6b--6b--6b------|
G--7b--7b--7b--7b--7b------|


*Chorus*
----------------------|
----------------------|
--6-6-6-6--2-2-2-2----|
--6-6-6-6--2-2-2-2----|
--4-4-4-4--0-0-0-0----|
----------------------|

*Bridge*
-----------------------|
-----------------------|
--9-9-9-9--4-4-4-4-----|
--9-9-9-9--4-4-4-4-----|
--7-7-7-7--2-2-2-2-----|
--0-0-0-0--------------|

*Riff* (Over Chorus)
                   end
e--5-5-5-5p0-7p0--|--5/4/5/4--2/4p0---|
B-----------------|-------------------|
G-----------------|-------------------|

*Outro*
-----------------------------------------------------------------------|
-----------------------------------------------------------------------|
-------------------------5--5--5--5-------------------------5--5--5~---|
--2-2--------2-2---------5--5--5--5--2-2--------2-2---------5--5--5~---|
--2-2--------2-2---------3--3--3--3--2-2--------2-2---------3--3--3~---|
--0-0--12/0--0-0--12/0---------------0-0--12/0--0-0--12/0--------------|
            
Hard to play? Try these video lessons and learn fast. | Correct




comments powered by Disqus
↑ Back to top | Tablatures and chords are parodies/interpretations of the original songs. You may use it for private study, scholarship, research or language learning purposes only