» » »

Failure, Let It Drip Tabs (ver.1)

Artists:  A B C D E F G H I J K L M N O P Q R S T U V W X Y Z # 

Let It Drip Tabs (ver.1)

Failure Tabs
 Rating:
4.2/5 (5 votes)
Let It Drip lessons Tabs too difficult? Try these video lessons and learn fast
                Failure
Magnified
E-flat
This is a pretty simple song, it just repeats these parts over and over, still fun to play.

Main Riff
Eb|---------------------------------|
Bb|---------------------------------|
Gb|---------------------------------|
Db|-------------------6-------------|
Ab|------8-8-8-8-8-8----5---5-5-5---|
Eb|-3/4--4-4-4-4-4-4------7---------|

Chorus                                         3x          1x
Eb|-------------------------------------|---------|-----------|
Bb|-------------------------------------|---------|-----------|
Gb|-------------------------------------|---------|-----------|
Db|-------------------------------------|-6-------|-----------|
Ab|-5-5-5-5-5-5-5-5-5-5-5-5-5-5-5-5-5-5-|---5---5-|-8-8-8-8-8-|
Eb|-6-6-6-6-6-6-6-6-6-6-6-6-6-6-6-6-6-6-|-----7---|-9-9-9-9-9-|

Solo
Eb|-----------------------------8---8--------6---6-----|----13--13----|
Bb|---6---6--------5---5-------------------------------|--------------|
Gb|-7---7---7----7---7---7----7---7---7----7---7---7---|-10---10---10-|
Db|----------------------------------------------------|--------------|
Ab|----------------------------------------------------|--------------|
Eb|----------------------------------------------------|--------------|

Outro
Eb|------------|
Bb|------------|
Gb|------------|
Db|------------|
Ab|------8///--|
Eb|-3/4--4///--|
            
Submit corrections

comments powered by Disqus
↑ Back to top | Failure Tabs for Let It Drip. Lyrics for acoustic guitar and electric guitar. Tablatures and chords are parodies/interpretations of the original songs. You may use it for private study, scholarship, research or language learning purposes only