» » »

Dirty Blue Ballons Tabs (ver.1)

Artists:  A B C D E F G H I J K L M N O P Q R S T U V W X Y Z # 

Dirty Blue Ballons Tabs (ver.1)

Failure
Rating:
5/5 (1 vote)

Hard to play? Try these video lessons and learn fast.
                


Tuning: Drop C# (Drop D Half Step Down)

(Please send any comments, I didnt figured the solo,so worked it out)



     INTRO            CHORUS
D# |-------------|---333----------------------------------|
A# |-3--6--10--8-|---333----------------------------------|
F# |-------------|----00-----------7-----10-----12--0--14-|
C# |-------------|----00--3-2---0--7--0--10--0--12--0--14-| 
G# |-2--5--8---7-|-2\333--3-2---0--5--0--8---0--10--0--12-|
C# |-------------|--------3-2---0--5--0--8---0--10--0--12-|

     Bridge/Outro              End
D# |----------------------|-------------------------|
A# |-3--6---10--8---10--8-|-10--8--6----------------|
F# |----------------------|-------------------------|
C# |----------------------|------------5------------|
G# |-2--5---8---7---8---7-|-8---7--5---5------------|
D# |----------------------|------------5------------|
            
Hard to play? Try these video lessons and learn fast. | Correct




comments powered by Disqus
↑ Back to top | Tablatures and chords are parodies/interpretations of the original songs. You may use it for private study, scholarship, research or language learning purposes only