>
 >
Bernie

Bernie Guitar Tabs

Failure - Bernie chords, tabs, tablatures, lyrics

Guitar lessons | Add/correct | Request | Top 50 tabs Artists:  A B C D E F G H I J K L M N O P Q R S T U V W X Y Z 0-9

Bernie Guitar Tabs – Failure

CD, Sheet music, Poster

Do you like Bernie? Share with your friends now
Tabs
copyright Failure 1994

Tune down 1/2 step (Eb, Ab, Db, Gb, Bb, Eb)

Key:

b: bend
r: release bend
^: slide down
(x): ghost note (sometimes played, sometimes not)

Intro:

play 3x
E/----------0---------------0-------------------/
B/--------3---3-----------2---2-----------------/
G/------6-------6-------5-------5---------------/
D/----4-----------4---3-----------3-------------/
A/--5---------------4---------------------------/
E/----------------------------------------------/

E/----------------------------------------------/
B/----------0---------------0-------------------/
G/--------5---5-----------5---5-----------------/
D/------0-------0-------0-------0---------------/
A/----4-----------4---4-----------4-------------/
E/--3---------------3---------------------------/

E/----------0---------------0-------------------/
B/--------3---3-----------2---2-----------------/
G/------6-------6-------5-------5---------------/
D/----4-----------4---3-----------3-------------/
A/--5---------------4---------------------------/
E/----------------------------------------------/

Only play this chord once.
E/-----/
B/-----/
G/-----/
D/-----/
A/--4--/
E/--3--/

Lead Guitar Intro
Guitar 1
E/--19--19--19--19--19b--19b--19br----19br----------/
B/---------------------------------18---------------/
G/--------------------------------------------------/
D/--------------------------------------------------/
A/--------------------------------------------------/
E/--------------------------------------------------/

Rithm Guitar Intro:
E/--16-------16------16--------16------16-------16---------/
B/-----15-------15------15--------15------15-------15------/
G/--------16-------16------16--------16------16-------16---/
D/---------------------------------------------------------/
A/---------------------------------------------------------/
E/---------------------------------------------------------/

Lead Guitar Intro
E/---------21----21--------------------/
B/--17--17----17-----------------------/
G/-------------------------------------/
D/-------------------------------------/
A/-------------------------------------/
E/-------------------------------------/

Rithm Guitar Intro:
E/--15-------15-------17-------17----------/
B/-----15-------15-------15-------17-------/
G/--------16-------16-------16-------16----/
D/-----------------------------------------/
A/-----------------------------------------/
E/-----------------------------------------/


Lead Guitar Intro
E/--19--19--19--19--19b--19b--19br----19br----/
B/---------------------------------18---------/
G/--------------------------------------------/
D/--------------------------------------------/
A/--------------------------------------------/
E/--------------------------------------------/

Rithm Guitar Intro:
E/--16-------16-------16-------16-------16-------15---------/
B/-----15-------15-------15-------15-------15-------15------/
G/--------16-------16-------16-------16-------16-------16---/
D/----------------------------------------------------------/
A/----------------------------------------------------------/
E/----------------------------------------------------------/



Lead Guitar Intro
E/-----------21^-------------/
B/--17---17------------------/
G/---------------------------/
D/---------------------------/
A/---------------------------/
E/---------------------------/

Rithm Guitar Intro:
E/--15-------15-------17-------17------------/
B/-----15-------15-------15-------17---------/
G/--------16-------16-------16-------16------/
D/-------------------------------------------/
A/-------------------------------------------/
E/-------------------------------------------/

Lead Guitar Intro
E/-------------------------------------------/
B/-----15----15----15------------------------/
G/--18----18----18----18---16----------------/
D/-------------------------------------------/
A/-------------------------------------------/
E/-------------------------------------------/

Rithm Guitar Intro:
E/--16------16------16-------16-------16-----------/
B/-----15------15------15-------15-------15--------/
G/--------16------16------16-------16-------16-----/
D/-------------------------------------------------/
A/-------------------------------------------------/
E/-------------------------------------------------/



Lead Guitar Intro
E/--------------------------------------------/
B/-----14----14----14-------------------------/
G/--16----16----16----16---15-----------------/
D/--------------------------------------------/
A/--------------------------------------------/
E/--------------------------------------------/

Rithm Guitar Intro:
E/--15-------15-------15-------17-------17------------/
B/-----15-------15-------15-------15-------17---------/
G/--------16-------16-------16-------16-------16------/
D/----------------------------------------------------/
A/----------------------------------------------------/
E/----------------------------------------------------/



Lead Guitar Intro
E/----------------------------------------------/
B/-----15----15----15---------------------------/
G/--18----18----18----18---16-------------------/
D/----------------------------------------------/
A/----------------------------------------------/
E/----------------------------------------------/

Rithm Guitar Intro:
E/--16-------16-------16-------16-------16-------------/
B/-----15-------15-------15-------15-------15----------/
G/--------16-------16-------16-------16-------16-------/
D/-----------------------------------------------------/
A/-----------------------------------------------------/
E/-----------------------------------------------------/

Lead Guitar Intro
E/----------------------------/
B/-----14----14---------------/
G/--16----16----16---15-------/
D/----------------------------/
A/----------------------------/
E/----------------------------/

Rithm Guitar Intro:
E/--15-------15-------17-------17------------/
B/-----15-------15-------15-------17---------/
G/--------16-------16-------16-------16------/
D/-------------------------------------------/
A/-------------------------------------------/
E/-------------------------------------------/

Verse:

play 4x
E/---------------------------/
B/---------------------------/
G/--1---------(4)---(7)------/
D/--2----------5-----8-------/
A/--2----------5-----8-------/
E/--0----------3-----6-------/


Interlude = First Intro

Chorus High

then play these chords 4x
  D     C#    G
E/----------------------------------------------------/
B/----------------------------------------------------/
G/--7--7--7--7--6--6--6-------------------------------/
D/--7--7--7--7--6--6--6--5-----5--5--5--5--5--5--5----/
A/--5--5--5--5--4--4--4--5-----5--5--5--5--5--5--5----/
E/--------------------3-----3--3--3--3--3--3--3-------/





Comments


Popular Failure tabs & chords
The Nurse Who Loved Me Chords
Pillowhead Drum Tabs
Dirty Blue Ballons Tabs
Dirty Blue Balloons Tabs
Pillowhead Tabs
Sergeant Politeness Tabs
Something Tabs
Stuck On You 1 Tabs
The Nurse Who Loved Me 2 Tabs
Stuck On You Ukulele


Song lyrics



↑ Back to top | Tablatures and chords are parodies/interpretations of the original songs. You may use it for private study, scholarship, research or language learning purposes only
© 2014 AZChords.com Contact us | Privacy policy | DMCA | Add/correct tabs | Request tabs | Top 50 tabs