» » »

Factory 81, Peace Officer Tabs (ver.3)

Artists:  A B C D E F G H I J K L M N O P Q R S T U V W X Y Z # 

Peace Officer Tabs (ver.3)

Factory 81 Tabs
 Rating:
4/5 (4 votes)
Peace Officer lessons Tabs too difficult? Try these video lessons and learn fast
1
                Play 7x (open with volume knob, after strumming open strings)
---------------------------------------------------I 
---------------------------------------------------I 
---------------------------------------------------I 
-000(444)-0004/3-33----------------------I 
-000(444)-0004/3-33----------------------I 
-000(444)-0004/3-33----------------------I 


2nd Part of Riff 1 Play 1x 
 ---------------------------------------------------I 
 ---------------------------------------------------I 
 ---------------------------------------------------I 
 -000(444)-0004/3-33----------------------I
 -000(444)-0004/3-33----------------------I
 -000(444)-0004/3-33----------------------I 





-------------------------------------
-------------------------------------
-------------------------------------
-------------------------------------
-------------------------------------
 -000(888)-000(666)-----I---0-5~~~~~~~~~ on fourth time, bend 


Riff 4 Play 4x
 ----------------------------------I 
----------------------------------I
----------------------------------I
 ----------------------------------I
 ----------------------------------I 
-000(4)--00-0-0(3)-----I 


Riff5 Play 2x (between drums)
 ----------------------------------I
 ----------------------------------I
 ----------------------------------I 
-00044444444444444---I
-00044444444444444---I 
-00044444444444444---I 


Play Riff 1 3x End on this on 3rd time 
----------------------------------I 
----------------------------------I 
----------------------------------I 
----------------------------------I 
----------------------------------I 
---(3334444)------------------I 


Riff 6 During Bass Solo Play
 ------------------------I----------I------------------------------I 
------------------------I----------I------------------------------I 
------------------------I----------I------------------------------I
 ------------------------I----------I------------------------------I
 ------------------------I----------I------------------------------I 
-22220022222-I--(33334444)--------------------------------I 


Riff 7 Play 4x and on fourth time play other part 
 -------------------------------------------------------------I
  ------------------------------------------------------------I 
 -------------------------------------------------------------I 
-22220022222------------I-000--------------------------I
-22220022222---------- -I-000-------------------------I
-22220022222------------I-000---------------------------I
            
Submit corrections

comments powered by Disqus
↑ Back to top | Factory 81 Tabs for Peace Officer. Lyrics for acoustic guitar and electric guitar. 1 Tablatures and chords are parodies/interpretations of the original songs. You may use it for private study, scholarship, research or language learning purposes only