» » »

Factory 81, Nanu Bass tabs (ver.1)

Artists:  A B C D E F G H I J K L M N O P Q R S T U V W X Y Z # 

Nanu Bass tabs (ver.1)

Factory 81 Tabs
 Rating:
4/5 (4 votes)
Nanu  lessons Tabs too difficult? Try these video lessons and learn fast
                (1)

Tuning: Drop C (C G C F)

Intro
|---------------------------------|
|---------------------------------|
|-------5-5-5-------8-8-8-8-6-6-6-|
|-0-0-0-------6-6-6---------------|x8

|-----|
|-----|
|-----|
|-0~~-|

Verse
|--------------------|
|--------------------|
|-----5--------5-----|
|-5-6---0--5-6---0-1-|x2

|-----------------------------------|
|-----------------------------------|
|-----5-----------------------5-----|
|-5-6---0-0-0--0-0--0-0-0-5-6---0-1-|x2

Chorus
|---------------------------------------------------------------|
|---------------------------------------------------------------|
|-----5-5/6-6--------------------------5-5/6-6------------------|
|-0-0---------6-6-6-3-3-3-3-3-3-3--0-0---------6-6-6-6-6-3--3-1-|

|-----|
|-----|
|-----|
|-0~~-|

Verse
|--------------------|
|--------------------|
|-----5--------5-----|
|-5-6---0--5-6---0-1-|x2

|-------------------------|
|-------------------------|
|-----5-------------------|
|-5-6---0-0-0--0-0--0-0-0-|x4

Play Chorus twice this time

Interlude
|--------------------------------------|
|--------------------------------------|
|--------------------------------------|
|-0-1-0-0-0-0-1-0-0-0-0-1-0-0-0-0-/5-6-|x6

The guitar plays the chorus by him self and bass comes in at the 
end the first chorus like this:
|--------------|
|--------------|
|--------------|
|-6-6-6-3--3-1-|
Repeat the chorus twice again then hold an open on the low C
The Bridge is the same as the intro and it's played 4 times but on
the 4th time play it like this:
|---------------|
|---------------|
|-------5-5-5---|
|-0-0-0-------6-|

Outro
|---------------------------------|
|---------------------------------|
|-------5-5-5-------8-8-8-8-6-6-6-|
|-0-0-0-------6-6-6---------------|x11

|----------------------|
|----------------------|
|----5----8------------|
|-0----6-----0-6-5-3-0-|
            
Submit corrections

comments powered by Disqus
↑ Back to top | Factory 81 Bass for Nanu. Lyrics for acoustic guitar and electric guitar. Tablatures and chords are parodies/interpretations of the original songs. You may use it for private study, scholarship, research or language learning purposes only