» » »

Factory 81, Diary Two Tabs (ver.1)

Artists:  A B C D E F G H I J K L M N O P Q R S T U V W X Y Z # 

Diary Two Tabs (ver.1)

Factory 81 Tabs
 Rating:
4/5 (4 votes)
Diary Two lessons Tabs too difficult? Try these video lessons and learn fast
1
                
Tuning: Dropped-C (C G C F A D)

Intro
|----------------------------------------------|
|----------------------------------------------|
|----------------------------------------------|
|----------------------------------------------|
|----------------------------------------------|
|-12p0-0-0-12p0-0-13p0-12p0-0-12p0-0-13p0-12p0-|

|----------------------------|
|----------------------------|
|----------------------------|
|----------------------8-8-8-|
|----------------------8-8-8-|
|-0-12p0-0-13p0-12p0-0-8-8-8-|x4
		       PM-|

|-------------------------------------------------------------------|
|-------------------------------------------------------------------|
|-------------------------------------------------------------------|
|-----------------13p0-12----------15p0-12----------13p0-12---8-8-8-|
|-------------------------------------------------------------8-8-8-|
|-12p0-0-0-12p0-0---------0-12p0-0---------0-12p0-0---------0-8-8-8-|x2
							      PM-|

Verse
|-------------------------------------------------|
|-------------------------------------------------|
|-------------------------------------------------|
|-10-12-12-12-12-12-10-12-12-12-12-12-12-12-12-12-|
|-------------------------------------------------|
|-------------------------------------------------|x3
  PM---------------------------------------------|

|-------------------------------------------------|
|-------------------------------------------------|
|-------------------------------------------------|
|-10-12-12-12-12-12-10-12-12-12-12-12-15p13-12/10-|
|-------------------------------------------------|
|-------------------------------------------------|
  PM---------------------------------|
Repeat Both riffs again

1st Chorus
|----------------------------------------------|
|----------------------------------------------|
|----------------------------------------------|
|----------------------------------------------|
|----------------------------------------------|
|-12p0-0-0-12p0-0-13p0-12p0-0-12p0-0-13p0-12p0-|

|----------------------------|
|----------------------------|
|----------------------------|
|----------------------8-8-8-|
|----------------------8-8-8-|
|-0-12p0-0-13p0-12p0-0-8-8-8-|x2
		       PM-|

|-------------------------------------------------------------------|
|-------------------------------------------------------------------|
|-------------------------------------------------------------------|
|-----------------13p0-12----------15p0-12----------13p0-12---8-8-8-|
|-------------------------------------------------------------8-8-8-|
|-12p0-0-0-12p0-0---------0-12p0-0---------0-12p0-0---------0-8-8-8-|x2
							      PM-|

Repeat Verse

2nd Chorus
|----------------------------------------------|
|----------------------------------------------|
|----------------------------------------------|
|----------------------------------------------|
|----------------------------------------------|
|-12p0-0-0-12p0-0-13p0-12p0-0-12p0-0-13p0-12p0-|

|----------------------------|
|----------------------------|
|----------------------------|
|----------------------8-8-8-|
|----------------------8-8-8-|
|-0-12p0-0-13p0-12p0-0-8-8-8-|x2
		       PM-|

Interlude
|------------------------------------------------------|
|------------------------------------------------------|
|-7--7-7-10-10-10-10-10-10-10--------------------------|
|-7--7-7-10-10-10-10-10-10-10-1--1-1-1-1-1-1-1-1-1-1-1-|
|-5--5-5-8--8--8--8--8--8--8--1--1-1-1-1-1-1-1-1-1-1-1-|
|-5--5-5-8--8--8--8--8--8--8--1--1-1-1-1-1-1-1-1-1-1-1-|
				       PM-------------|

|------------------------------------------------------|
|------------------------------------------------------|
|-7--7-7-10-10-10-10-10-10-10--------------------------|
|-7--7-7-10-10-10-10-10-10-10-3--3-3-3-3-3-3-3-1-1-1-1-|
|-5--5-5-8--8--8--8--8--8--8--3--3-3-3-3-3-3-3-1-1-1-1-|
|-5--5-5-8--8--8--8--8--8--8--3--3-3-3-3-3-3-3-1-1-1-1-|
				       PM-------------|
Play both riffs 2 times total.

Bridge
|----------------------------------------------|
|----------------------------------------------|
|----------------------------------------------|
|----------------------------------------------|
|----------------------------------------------|
|-12p0-0-0-12p0-0-13p0-12p0-0-12p0-0-13p0-12p0-|

|----------------------------|
|----------------------------|
|----------------------------|
|----------------------8-8-8-|
|----------------------8-8-8-|
|-0-12p0-0-13p0-12p0-0-8-8-8-|
		       PM-|

|-------------------------------------------------------------------|
|-------------------------------------------------------------------|
|-------------------------------------------------------------------|
|-----------------13p0-12----------15p0-12----------13p0-12---8-8-8-|
|-------------------------------------------------------------8-8-8-|
|-12p0-0-0-12p0-0---------0-12p0-0---------0-12p0-0---------0-8-8-8-|x2
							      PM-|

Repeat Interlude

Outro
|-------------------------------------------------|
|-------------------------------------------------|
|-----------------------------------7-7-8-8-8-7-8-|
|-0-1-1-0-1-1-1-0---0-1-1-0-1-1-1-0-0-0-0-0-0-0-0-|
|-0-1-1-0-1-1-1-0---0-1-1-0-1-1-1-0---------------|
|-0-1-1-0-1-1-1-0---0-1-1-0-1-1-1-0---------------|

|-----------------|
|-----------------|
|-----------------|
|-0-1-1-0-1-1-1-0-|
|-0-1-1-0-1-1-1-0-|
|-0-1-1-0-1-1-1-0-|x3

|-------------------------------|
|-------------------------------|
|-----------------7-7-8-8-8-7-8-|
|-0-1-1-0-1-1-1-0-0-0-0-0-0-0-0-|
|-0-1-1-0-1-1-1-0---------------|
|-0-1-1-0-1-1-1-0---------------|x4

|--------------------------------------|
|--------------------------------------|
|-----------------19-19-20-20-20-19-20-|
|-0-1-1-0-1-1-1-0-0--0--0--0--0--0--0--|
|-0-1-1-0-1-1-1-0----------------------|
|-0-1-1-0-1-1-1-0----------------------|x4

|-----------------|
|-----------------|
|-----------------|
|-0-1-1-0-1-1-1-0-|
|-0-1-1-0-1-1-1-0-|
|-0-1-1-0-1-1-1-0-|
        PM-----|


That about does it.
            
Submit corrections

comments powered by Disqus
↑ Back to top | Factory 81 Tabs for Diary Two. Lyrics for acoustic guitar and electric guitar. 1 Tablatures and chords are parodies/interpretations of the original songs. You may use it for private study, scholarship, research or language learning purposes only