» » »

Face To Face, Complicated Tabs (ver.1)

Artists:  A B C D E F G H I J K L M N O P Q R S T U V W X Y Z # 

Complicated Tabs (ver.1)

Face To Face Tabs
 Rating:
4.2/5 (5 votes)
Complicated lessons Tabs too difficult? Try these video lessons and learn fast
1
                -----------------------------------------------------------------------------
-----------------------------------------------------------------------------

Tuning: Standard

I was suprised that there were no tabs up already for this great song.

Chords used: (all are power chords)

                 F     G     A     C
               e---------------------|
               B---------------------|
               G-------------------5-|
               D-3-----5-----7-----5-|
               A-3-----5-----7-----3-|
               E-1-----3-----5-------|

Intro:

e---------------------  e----------   e---------------------|
B---------------------  B----------   B---------------------|
G----------------5555-  G----------   G-5555----------------|
D-3333-5555-7777-5555   D-33333333-   D-5555-7777-5555-3333-|
A-3333-5555-7777-3333-  A-33333333-   A-3333-7777-5555-3333-|
E-1111-3333-5555------  E-11111111-   E------5555-3333-1111-|
  PM    PM   PM            Strum              Strum
   2X with bass,            1X                 2X
   2X with guitars

Verse 1: 1X, Strum

e-------------------------------------|
B-------------------------------------|
G----------55555555----------55555555-|
D-33333333-55555555-33333333-55555555-|
A-33333333-33333333-33333333-33333333-|
E-11111111----------11111111----------|

"...You're never gonna see what you like, you're never gonna wake up and change your 
You're never gonna keep what you hold, you won't accomplish anything on your own..."

Chorous: Strum

e--------------------------------------------------------------------|
B--------------------------------------------------------------------|
G-----------------------------------------------5555-----------------|
D-77777777-33333333-77777777-55555555-33333333--5555-7777-5555-3333--|
A-77777777-33333333-77777777-55555555-33333333--3333-7777-5555-3333--|
E-55555555-11111111-55555555-33333333-11111111-------5555-3333-1111--|
        1X ( A, F, A, G part)                     2x ( C, A, G, F part)

"...You can't have what you wanted x4...So make up your mind, and come to you senses. 
never win if you don't bend, it's not so complicated. If you decide to change your mind, 
find you're inudated..."

Verse 2: Same as Verse 1

"...You're never gonna do what you say, you always try to make up another way. You're 
gonna act on your own, you're never gonna see that you're all alone..."

Repeat Chorous

Bridge: 2X strum, 2X P.M., 4X P.M. w/lyrics

e---------------------|
B---------------------|
G----------------5555-|
D-3333-5555-7777-5555-|
A-3333-5555-7777-3333-|
E-1111-3333-5555------|

"...And so you're here and you don't know if you can choose a way to go. It's not about 
way it is, so don't become a realist. You've got time to make a choice, don't think 
but have a voice. And when you think the time is right, don't ever be afraid to fight..."

After playing the bridge play this:

e----------|
B----------|
G----------|
D-33333333-
A-33333333-
E-11111111-

Then play chorous again

Ending: 1X

e----------|
B----------|
G----------|
D-33333333-
A-33333333-
E-11111111-

...You're never gonna see what you like, you're never gonna wake up and change your mind..."

End on:
           e---
           B---
           G-5-
           D-5-
           A-3-
           E---
            
Submit corrections

comments powered by Disqus
↑ Back to top | Face To Face Tabs for Complicated. Lyrics for acoustic guitar and electric guitar. 1 Tablatures and chords are parodies/interpretations of the original songs. You may use it for private study, scholarship, research or language learning purposes only