» » »

Face To Face, Blind Bass tabs (ver.2)

Artists:  A B C D E F G H I J K L M N O P Q R S T U V W X Y Z # 

Blind Bass tabs (ver.2)

Face To Face Tabs
 Rating:
4/5 (4 votes)
Blind lessons Tabs too difficult? Try these video lessons and learn fast
1
                Face to Face – Blind (live)

Hi there have fun with this on!
It's slightly different at some parts but this is how I play it.

No bass until 0:40
Intro
G |------------------------------------------------------|
D |------------------------------------------------------|
A |----------55555555-----------33333333-----------------|
E |-11111111----------1111-3333--------------------------|

Intro II 0:49
G |------------------------------------------------------|
D |------------------------------------------2/5555------|
A |----------5555-88-77-55-33-----------3333-------------|
E |-11111111------------------1111-3333------------------|

Pre-Chorus 0:58 (play this 2 times)
G |---9--7--5-------9--7--5--7----------------------------|
D |-7---------9--7----------------------------------------|
A |--------------------------------22-33-55----22-33-55---|
E |-----------------------------33----------33------------|

G |------------------------------------------------------|
D |------------------------------------------------------|
A |-33333333---------------------------------------------|
E |------------------------------------------------------|

Chorus 1:16
G |------------------------------------------------------|
D |------------------------------------------------------|
A |-----------------------22-33-55-----22-33-55---3~-----|
E |-55555555-11111111--33-----------33-------------------|

G |------------------------------------------------------|
D |------------------------------------------------------|
A |------------------------------------------------------|
E |-8\---------------------------------------------------|

Intro 1:24
Intro II 1:34
Pre Chorus (2 times) 1:42

Interlude 2:00
G |------------------------------------------------------|
D |------------------------------------------------------|
A |------------------------------------------------------|
E |-55555555---------------------------------------------|

Intro 2:04

Intro II  2:12
G |------------------------------------------------------|
D |------------------------------------------------------|
A |----------5555-88-77-55-33-----------3~---------------|
E |-11111111------------------1111-3333------------------|
            
Submit corrections

comments powered by Disqus
↑ Back to top | Face To Face Bass for Blind. Lyrics for acoustic guitar and electric guitar. 1 Tablatures and chords are parodies/interpretations of the original songs. You may use it for private study, scholarship, research or language learning purposes only