» » »

Big Choice Tabs (ver.2)

Artists:  A B C D E F G H I J K L M N O P Q R S T U V W X Y Z # 

Big Choice Tabs (ver.2)

Face To Face
Rating:
5/5 (1 vote)

Hard to play? Try these video lessons and learn fast.
                intro:
e--0----0------0----0-------|
B----2----2-3----2----2-3---|
G---------------------------|   x2
D---------------------------|
A---------------------------|
E---------------------------|

let the powerchords begin:
e--------------------------------|
B--------------------------------|
G------9-----7------9-----7------|
D---7--9--4--7---7--9--4--7--2---|
A---7--7--4--5---7--7--4--5--2---|
E---5-----2------5-----2-----0---|

verse:
e-------------------------|
B-------------------------|   *this is really heavily muted, so it doesn't
G------4--6-----7-----9---|    have much of a tone to it. i'm not sure if
D---7--4--6-*4--7--7--9---|    this is right or not.
A---7--2--4--4--5--7--7---|
E---5--------2-----5------|

big lies, surprise, you thought of everything, it builds your character
you know... etc.

Bridge:
e----------------------------|
B----------------------------|
G------7-----7-----7-----9---|
D---4--7--4--7--4--7--2--9---|
A---4--5--4--5--4--5--2--7---|
E---2-----2-----2-----0------|

do you think everything worked out? it's good to see you've finally made it,
can't you see you're lying to yourself?

Chorus: (almost the same as intro)
e--------------------------|
B--------------------------|
G------9-----7------9--7---|
D---7--9--4--7---7--9--7---|
A---7--7--4--5---7--7--5---|
E---5-----2------5---------|

but this was all your choice, do you think it makes a difference now,
but this was all your choice, it's good to see it hasn't changed you

verse

bridge

chorus

solo: (it sounds alright to me)
e----5-5-5-5-5-5-5-7-4-4---|
B---5-5-5-5-5-5-5-5-5-5----|
G--------------------------|  x4
D--------------------------|
A--------------------------|
E--------------------------|

little intro riff

bridge

chorus (end with A chord)
            
Hard to play? Try these video lessons and learn fast. | Correct




comments powered by Disqus
↑ Back to top | Tablatures and chords are parodies/interpretations of the original songs. You may use it for private study, scholarship, research or language learning purposes only