» » »

Face To Face, Big Choice Tabs (ver.1)

Artists:  A B C D E F G H I J K L M N O P Q R S T U V W X Y Z # 

Big Choice Tabs (ver.1)

Face To Face Tabs
 Rating:
4/5 (4 votes)
Big Choice lessons Tabs too difficult? Try these video lessons and learn fast
                INTRO
e-------------------------------------------------------|
B-5-2--5-2--3-------------------------------------------|
G-2-2--2-2--2-------------------------------------------|X4
D-------------------------------------------------------|
A-------------------------------------------------------|
E-------------------------------------------------------|

PRE VERSE
e------------------------------------------------------|
B------------------------------------------------------|
G------------------------------------------------------|
D-------------9-9-9-9-9-9-9-------------7-7-7-7-7-7----|
A-7-7-7-7-7-7-7-7-7-7-7-7-7-4-4-4-4-4-4-5-5-5-5-5-5----|
E-5-5-5-5-5-5---------------2-2-2-2-2-2----------------|

e------------------------------------------------------|
B------------------------------------------------------|
G------------------------------------------------------|
D-------------9-9-9-9-9-9-9-------------7-7-7-7-7-7-2--|
A-7-7-7-7-7-7-7-7-7-7-7-7-7-4-4-4-4-4-4-5-5-5-5-5-5-2--|
E-5-5-5-5-5-5---------------2-2-2-2-2-2-------------0--|
VERSE 1 (VERSE 2 IS THE SAME)
e------------------------------------------------------|
B------------------------------------------------------|
G-2-2-2-2-2-2------------------------------------------|
D-2-2-2-2-2-2-4-4-4-4-4-4-6-6-6-6-6-6------------------|
A-0-0-0-0-0-0-2-2-2-2-2-2-4-4-4-4-4-4-4-4-4-4-4-4-4----|
E-------------------------------------2-2-2-2-2-2-2----|(palm mute)

e------------------------------------------------------|
B------------------------------------------------------|
G------------------------------------------------------|
D-7-7-7-7-7-7-------------9-9-9-9-9-9-9-9-9-9-9-9------|
A-5-5-5-5-5-5-7-7-7-7-7-7-7-7-7-7-7-7-7-7-7-7-7-7------|
E-------------5-5-5-5-5-5------------------------------|X2

PRE CHORUS
e------------------------------------------------------|
B------------------------------------------------------|
G------------------------------------------------------|
D-------------7-7-7-7-7-7---------------7-7-7-7-7-7-7--|
A-4-4-4-4-4-4-5-5-5-5-5-5-4-4-4-4-4-4-4-5-5-5-5-5-5-5--|
E-2-2-2-2-2-2-------------2-2-2-2-2-2-2----------------|x3

e------------------------------------------------------|
B------------------------------------------------------|
G-------------------------9-9-9-9-9-9-9-9-9-9-9-9-9-9--|
D-2-2-2-2-2-2-2-2-2-2-2-2-7-7-7-7-7-7-7-7-7-7-7-7-7-7--|
A-2-2-2-2-2-2-2-2-2-2-2-2------------------------------|
E------------------------------------------------------|

Chorus same as Pre Intro
VERSE 2
CHORUS

BRIDGE(LISTEN TO SONG FOR EXACT STRUMMING PATTERN)

e-0--0--0--0--0--0--0--0--0--0--0--0--0--0--0-0--------|
B-10-10-10-10-10-10-10-10-10-10-10-10-12-12-9-9--------|X4
G------------------------------------------------------|
D------------------------------------------------------|
A------------------------------------------------------|
E------------------------------------------------------|
BACK TO INTRO AND PRE CHORUS THEN CHORUS
            
Submit corrections

comments powered by Disqus
↑ Back to top | Face To Face Tabs for Big Choice. Lyrics for acoustic guitar and electric guitar. Tablatures and chords are parodies/interpretations of the original songs. You may use it for private study, scholarship, research or language learning purposes only