» » »

Fabrizio De Andre, Tre Madri Tabs (ver.1)

Artists:  A B C D E F G H I J K L M N O P Q R S T U V W X Y Z # 

Tre Madri Tabs (ver.1)

Fabrizio De Andre Tabs
 Rating:
4/5 (4 votes)
Tre Madri lessons Tabs too difficult? Try these video lessons and learn fast
1
                ----------------------------------------------------------------------------------
                                   Tre Madri - Fabrizio de André
----------------------------------------------------------------------------------
Capo: 2nd

"Tito, non sei figlio di Dio, ma c'è chi muore nel dirti addio" "Dimaco, ignori chi fu 
       Am          F        F      E             C      C      B7     E  
e|--------------------------------------------------------------------------|
B|-----1------1------1-------1------0------0------1------1------0------0----|
G|----2-2----2-2----2-2-----2-2----1-1----0-0----0-0----0-0----2-2----1-1---|
D|---2---2--2---2--3---3---3---3--2---2--0---0--2---2--2---2--1---1--2---2--|
A|--0-------------3--------------2-------------3------3------2------2-------|
E|---------3--------------1-------------3-----------------------------------|
 
tuo padre, ma più di te muore tua madre". 
     Am           F             C       E
e|--------------------------------------------------------------------------|
B|----1------1------1------0------1------0----------------------------------|
G|---2-2----2-2----2-2----0-0----0-0----1-1---------------------------------|
D|--2---2--2---2--3---3--0---0--2---2--2---2--------------------------------|
A|-0-------------3-------------3------2-------------------------------------|
E|--------3-------------3---------------------------------------------------|
  

"Con troppe lacrime piangi, Maria, solo l'immagine d'un'agonia: sai che alla vita, nel terzo
     Am          F        F      E             C      C      B7     E  
e|--------------------------------------------------------------------------|
B|----1------1------1-------1------0------0------1------1------0------0-----|
G|---2-2----2-2----2-2-----2-2----1-1----0-0----0-0----0-0----2-2----1-1----|
D|--2---2--2---2--3---3---3---3--2---2--0---0--2---2--2---2--1---1--2---2---|
A|-0-------------3--------------2-------------3------3------2------2--------|
E|--------3--------------1-------------3------------------------------------|


giorno, il figlio tuo farà ritorno: lascia noi piangere, un po' più forte, chi non 
      F     F      Dm     E       Am    Am     B      E       F     F      
e|------------------1------------------------------------------------------|
B|----1------1-----3-3-----0------1------1------4------0------1------1-----|
G|---2-2----2-2---2---2---1-1----2-2----2-2----4-4----1-1----2-2----2-2----|
D|--3---3--3---3-0-------2---2--2---2--2---2--4---4--2---2--3---3--3---3---|
A|-3--------------------2------0------0------2------2------3---------------|
E|--------1-------------------------------------------------------1--------|

risorgerà più dalla morte".
      Dm     E      Am
e|----1---------------------------------------------------------------------|
B|---3-3-----0------1-------------------------------------------------------|
G|--2---2---1-1----2-2------------------------------------------------------|
D|-0-------2---2--2---2-----------------------------------------------------|
A|--------2------0----------------------------------------------------------|
E|--------------------------------------------------------------------------|


(INTERMEZZO) 

e|-------------------------------------------0-1-0--------------------------|
B|---0---1------0------0---1------0------1-----------4------0------1------1-|
G|--2---2-2----1-1----2---2-2----0-0----0-0---------4-4----1-1----2-2----2--|
D|-2---2---2--2---2--2---2---2--0---0--2---2-------4---4--2---2--2---2--2---|
A|----0-----------------0-------------3-----------2-------------0-----------|
E|-----------0-----------------3-------------------------0-------------3----|


e|-0-0-1-0----1---1---------------------------------------------------------|
B|-----------3-3-3-3----0------1--------------------------------------------|
G|----------2----------1-1----2-2-------------------------------------------|
D|---------0----------2---2--2---2------------------------------------------|
A|--------------------------0-----------------------------------------------|
E|-------------------0------------------------------------------------------|
(FINE INTERMEZZO)


"Piango di lui ciò che mi è tolto, le braccia magre, la fronte, il volto, ogni sua vita che vive
       Am          F        F      E             C      C      B7     E  
e|--------------------------------------------------------------------------|
B|----1------1------1-------1------0------0------1------1------0------0-----|
G|---2-2----2-2----2-2-----2-2----1-1----0-0----0-0----0-0----2-2----1-1----|
D|--2---2--2---2--3---3---3---3--2---2--0---0--2---2--2---2--1---1--2---2---|
A|-0-------------3--------------2-------------3------3------2------2--------|
E|--------3--------------1-------------3------------------------------------|


ancora, che vedo spegnersi ora per ora.
      Am           F             C       E
e|--------------------------------------------------------------------------|
B|----1------1------1------0------1------0----------------------------------|
G|---2-2----2-2----2-2----0-0----0-0----1-1---------------------------------|
D|--2---2--2---2--3---3--0---0--2---2--2---2--------------------------------|
A|-0-------------3-------------3------2-------------------------------------|
E|--------3-------------3---------------------------------------------------|

Figlio nel sangue, figlio nel cuore, e chi ti chiama - Nostro Signore -, nella fatica del tuo
       Am          F        F      E             C      C      B7     E  
e|--------------------------------------------------------------------------|
B|----1------1------1-------1------0------0------1------1------0------0-----|
G|---2-2----2-2----2-2-----2-2----1-1----0-0----0-0----0-0----2-2----1-1----|
D|--2---2--2---2--3---3---3---3--2---2--0---0--2---2--2---2--1---1--2---2---|
A|-0-------------3--------------2-------------3------3------2------2--------|
E|--------3--------------1-------------3------------------------------------|



sorriso cerca un ritaglio di Paradiso.
      Am           F             C       E
e|--------------------------------------------------------------------------|
B|----1------1------1------0------1------0----------------------------------|
G|---2-2----2-2----2-2----0-0----0-0----1-1---------------------------------|
D|--2---2--2---2--3---3--0---0--2---2--2---2--------------------------------|
A|-0-------------3-------------3------2-------------------------------------|
E|--------3-------------3---------------------------------------------------|


Per me sei figlio, vita morente, ti portò cieco questo mio ventre, come nel grembo, e adesso in
       Am          F        F      E             C      C      B7     E  
e|--------------------------------------------------------------------------|
B|----1------1------1-------1------0------0------1------1------0------0-----|
G|---2-2----2-2----2-2-----2-2----1-1----0-0----0-0----0-0----2-2----1-1----|
D|--2---2--2---2--3---3---3---3--2---2--0---0--2---2--2---2--1---1--2---2---|
A|-0-------------3--------------2-------------3------3------2------2--------|
E|--------3--------------1-------------3------------------------------------|



croce, ti chiama amore questa mia voce. Non fossi stato figlio di Dio t'avrei 
      F     F      Dm     E       Am    Am     B      E       F     F      
e|------------------1------------------------------------------------------|
B|----1------1-----3-3-----0------1------1------4------0------1------1-----|
G|---2-2----2-2---2---2---1-1----2-2----2-2----4-4----1-1----2-2----2-2----|
D|--3---3--3---3-0-------2---2--2---2--2---2--4---4--2---2--3---3--3---3---|
A|-3--------------------2------0------0------2------2------3---------------|
E|--------1-------------------------------------------------------1--------|


ancora per figlio mio"
      Dm     E      Am
e|----1---------------------------------------------------------------------|
B|---3-3-----0------1-------------------------------------------------------|
G|--2---2---1-1----2-2------------------------------------------------------|
D|-0-------2---2--2---2-----------------------------------------------------|
A|--------2------0----------------------------------------------------------|
E|--------------------------------------------------------------------------|


(OUTRO)
e|-------------------------------------------0-1-0--------------------------|
B|---0---1------0------0---1------0------1-----------4------0------1------1-|
G|--2---2-2----1-1----2---2-2----0-0----0-0---------4-4----1-1----2-2----2--|
D|-2---2---2--2---2--2---2---2--0---0--2---2-------4---4--2---2--2---2--2---|
A|----0-----------------0-------------3-----------2-------------0-----------|
E|-----------0-----------------3-------------------------0-------------3----|


e|-0-0-1-0----1---1---------------------------------------------------------|
B|-----------3-3-3-3----0------1--------------------------------------------|
G|----------2----------1-1----2-2-------------------------------------------|
D|---------0----------2---2--2---2------------------------------------------|
A|--------------------------0-----------------------------------------------|
E|-------------------0------------------------------------------------------|
            
Submit corrections

comments powered by Disqus
↑ Back to top | Fabrizio De Andre Tabs for Tre Madri. Lyrics for acoustic guitar and electric guitar. 1 Tablatures and chords are parodies/interpretations of the original songs. You may use it for private study, scholarship, research or language learning purposes only