» » »

Fabrizio De Andre, La Guerra Di Piero Tabs (ver.1)

Artists:  A B C D E F G H I J K L M N O P Q R S T U V W X Y Z # 

La Guerra Di Piero Tabs (ver.1)

Fabrizio De Andre Tabs
 Rating:
4.4/5 (7 votes)
La Guerra Di Piero lessons Tabs too difficult? Try these video lessons and learn fast
1
                Intro:

|-5--5--3--3--0--0----|-0-------------------|
|-------------------3-|----3--0-------------|
|---------------------|----------2--0--2----|
|---------------------|----------------2----|
|---------------------|---------------------|
|---------------------|---------------------|

|-5--5--3--3--0--0----|-0-------------------|
|-------------------3-|----3--0--------1----|
|---------------------|----------2--0--2----|
|-2--2--0--0----------|-------0--2--0-------|
|-------------3--3--0-|-0--3-----------0----|
|---------------------|---------------------|

         MI                   LA-              RE-     SOL7       DO
Dormi sepolto in un campo di grano, non e' la rosa, non e' il tulipano 
            MI                    LA-           RE-     MI     LA-
che ti fan veglia dall'ombra dei fossi ma sono mille papaveri rossi. 
            MI               LA-               RE-                  LA-
"Lungo le sponde del mio torrente voglio che scendano i lucci argentati, 
              RE-    SOL7    DO              MI              LA-
non piu' i cadaveri dei soldati portati in braccio dalla corrente". 

Cosi' dicevi ed era d'Inverno e come gli altri, verso l'inferno te ne vai
triste     
come chi deve ed il vento ti sputa in faccia la neve. 

Intermezzo:

|-5-5-3-3-1-0---0-0-|-5-5-3-3-1-0---0---|-0----0-----------|
|-------------3-----|-------------3-----|-0------3-1-1-----|
|-------------------|-------------------|------------2-----|
|-------------------|-------------------|------------------|
|-------------------|-------------------|------------0-----|
|-------------------|-------------------|-0----------------|

         MI              LA-                  RE-      SOL7           DO
Fermati Piero, fermati adesso, lascia che il vento ti passi un po' addosso,

                 MI                 LA-                RE-          MI     
    LA-
dei morti in battaglia ti porti la voce, chi diede la vita ebbe in cambio
una croce. 

etc. etc...
            
Submit corrections

comments powered by Disqus
↑ Back to top | Fabrizio De Andre Tabs for La Guerra Di Piero. Lyrics for acoustic guitar and electric guitar. 1 Tablatures and chords are parodies/interpretations of the original songs. You may use it for private study, scholarship, research or language learning purposes only