» » »

Fabrizio De Andre, Ho Visto Nina Volare Tabs (ver.1)

Artists:  A B C D E F G H I J K L M N O P Q R S T U V W X Y Z # 

Ho Visto Nina Volare Tabs (ver.1)

Fabrizio De Andre Tabs
Rating:
0/5 (0 votes)
Ho Visto Nina Volare lessons Tabs too difficult? Try these video lessons and learn fast
                

       Fabrizio De Andr^?

       "Ho visto Nina volare"

       (da "Anime salve" - 1996)


Intro:

E|---3-3-3-3----|-1--------3-1-|--------------|--------1-----|
B|------------1-|--------------|--4-4-4-4-----|-3--------4-3-|
G|-3------------|--------------|-0----------0-|-1------------|
D|--------------|--------------|--------------|--------------|
A|--------------|--------------|--------------|--------------|
E|--------------|--------------|--------------|--------------|

                                 Cm        Gm7  Cm
E|--------------|--------------|--------------|--------------|
B|-1-1-1-1------|--------------|--------------|--------------|
G|--------------|-3-3-3-3----1-|-0-0-0-0----3-|-0------------|
D|--------------|-0-0-0-0------|-1-1-1-1----3-|-1------------|
A|--------------|--------------|-3-3-3-3----5-|-3------------|
E|--------------|--------------|--------------|--------------|

Cm
Mastica e sputa
da una parte il miele
G7
mastica e sputa
dall'altra la cera
Cm
mastica e sputa
G7                Cm  Fm Cm
prima che venga neve

Luce luce lontana
pi^? bassa delle stelle
G7
sar^? la stessa mano
                       Cm
che ti accende e ti spegne

   Cm
Ho visto Nina volare
tra le corde dell'altalena
   G7
un giorno la prender^?
come fa il vento alla schiena

Cm
E se lo sa mio padre
dovr^? cambiar paese
G7
se mio padre lo sa
mi imbarcher^? sul mare

Cm
Mastica e sputa
da una parte il miele
G7
mastica e sputa
dall'altra la cera
Cm
mastica e sputa
G7                 Cm  Fm Cm
prima che faccia neve

(repeat intro)

   Cm
Stanotte ^? venuta l'ombra
l'ombra che mi fa il verso
G7
le ho mostrato il coltello
e la mia maschera di gelso

Cm
E se lo sa mio padre
mi metter^? in cammino
G7
se mio padre lo sa
mi imbarcher^? lontano

Cm
Mastica e sputa
da una parte la cera
G7
mastica e sputa
dall'altra parte il miele
Cm
mastica e sputa
G7                Cm
prima che metta neve

   Cm
Ho visto Nina volare
tra le corde dell'altalena
   G7
un giorno la prender^?
come fa il vento alla schiena

Cm
Luce luce lontana
che si accende e si spegne
G7
quale sar^? la mano

che illumina le stelle

(repeat intro)

Cm
Mastica e sputa
G7                Cm
prima che venga neve.
            
Submit corrections

comments powered by Disqus
↑ Back to top | Fabrizio De Andre Tabs for Ho Visto Nina Volare. Lyrics for acoustic guitar and electric guitar. Tablatures and chords are parodies/interpretations of the original songs. You may use it for private study, scholarship, research or language learning purposes only