» » »

Fabrizio De Andre, Don Raffaé Tabs (ver.1)

Artists:  A B C D E F G H I J K L M N O P Q R S T U V W X Y Z # 

Don Raffaé Tabs (ver.1)

Fabrizio De Andre Tabs
Rating:
0/5 (0 votes)
Don Raffaé lessons Tabs too difficult? Try these video lessons and learn fast
                e-----------------------------------------------0-----|
B--1 p 0------1 p 0---------1 p 0-------1 p 0---------|
G--------2----------2-------------2-----------2-------|
D---------------------2-------------------------------|
A-----------------------------------------------------|
E-----------------------------------------------------|



e--------------------------------------------0--------|
B--3-3-3-3-3-3--1-1-1-1-1-1--0-0-0--3--1--0-----------|
G-----------------------------------------------------|
D-----------------------------------------------------|
A-----------------------------------------------------|
E-----------------------------------------------------|




e-----------------------------------------------0-----|
B--1 p 0------1 p 0---------1 p 0-------1 p 0---------|
G--------2----------2-------------2-----------2-------|
D---------------------2-------------------------------|
A-----------------------------------------------------|
E-----------------------------------------------------|





e-----------------------------------------------------|
B--3-3-3-3-3-3--1-1-1-1-1-1--0-0-0--3--1--0-----------|
G--------------------------------------------2--------|
D-----------------------------------------------------|
A-----------------------------------------------------|
E-----------------------------------------------------|

      lam                               mi                lam
Io mi chiamo Pasquale Cafiero e son brigadiero del carcere oine'
        lam                                mi                 lam
Io mi chiamo Cafiero Pasquale, sto a Poggio Reale dal cinquantatre'
        rem          lam        rem                lam
E al centesimo catenaccio alla sera mi sento uno straccio
        rem                 lam                     mi
Per fortuna che al braccio speciale c'e' un uomo geniale che parla con
lam
me

Tutto il giorno con quattro infamoni, briganti, papponi, cornuti e
lacche'
Tutte l'ore co' 'sta fetenzia che sputa minacce e s'a piglia co' me
Ma alla fine m'assetto papale, mi sbottono e mi leggo 'o giornale
Mi consiglio con don Raffae' mi spiega che penso e bevimmo 'o cafe'

sol              do            sol             do
A che bello 'o cafe', pure in carcere 'o sanno fa
         rem              lam                  mi                  lam
Co' a ricetta che a Ciccirinella, compagno di cella, c'ha dato mamma'

Prima pagina venti notizie, ventuno ingiustizie e lo stato che fa
Si costerna, s'indigna, s'impegna poi getta la spugna con gran dignita'
Mi scervello e mi asciugo la fronte, per fortuna c'e' chi mi risponde
A quell'uomo sceltissimo e immenso, io chiedo consenso a don Raffae'
Un galantuomo che tiene sei figli ha chiesto una casa e ci danno
consigli
Mentre 'o assessore che Dio lo perdoni 'ndrento 'a roulotte ci tiene i
visoni
Voi vi basta una mossa, una voce, c'a 'sto cristo ci levano 'a croce
Con rispetto s'e' fatto le tre, volite 'a spremuta o volite 'o cafe'

A che bello 'o cafe', pure in carcere 'o sanno fa
Co' a ricetta che a Ciccirinella, compagno di cella, c'ha dato mamma'
A che bello 'o cafe', pure in carcere 'o sanno fa
Co' a ricetta che a Ciccirinella, compagno di cella, preciso a mamma'

Qui ci sta l'inflazione, la svalutazione e la borsa ce l'ha chi ce l'ha
Io non tengo compendio che chillo stipendio e un ambo se sogno 'a papa'
Aggiungete mia figlia Innocenza, co' marito non tiene pazienza
Non chiedo la grazia pe' me, vi faccio la barba o la fate da se'
Voi tenete un cappotto cammello che al maxiprocesso eravate 'o chiu'
bello
Un vestito gessato marrone, cosi' ci e' sembrato alla televisione
Pe' 'ste nozze vi prego eccellenza mi prestasse per fare presenza
Io gia' tengo le scarpe e 'o gilet, gradite 'o campari o volite 'o cafe'

A che bello 'o cafe', pure in carcere 'o sanno fa
Co' a ricetta che a Ciccirinella, compagno di cella, c'ha dato mamma'
A che bello 'o cafe', pure in carcere 'o sanno fa
Co' a ricetta che a Ciccirinella, compagno di cella, preciso a mamma'

Qui non c'e' piu' decoro, le carceri d'oro ma chi le ha mai viste
chissa'
Chiste so' fatiscenti, pe' chisto i fetenti se tengono l'immunita'
Don Raffae' voi politicamente ve lo giuro sarebbe 'no santo
Ma ca dinto voi state a paga' e fora chiss'atre se stanno a spassa'
A proposito tengo 'no frate che da quindici anni sta disoccupato
Chill'ha fatto quaranta concorsi, novanta domande e duecento ricorsi
Voi che date conforto e lavoro, eminenza vi bacio, v'imploro
Chillo duorme co' mamma e co' me, che crema d'Arabia ch'e' chisto cafe'
---
            
Submit corrections

comments powered by Disqus
↑ Back to top | Fabrizio De Andre Tabs for Don Raffaé. Lyrics for acoustic guitar and electric guitar. Tablatures and chords are parodies/interpretations of the original songs. You may use it for private study, scholarship, research or language learning purposes only