>
 >
Sleepless Nights

Sleepless Nights Guitar Tabs

Faber Drive - Sleepless Nights chords, tabs, tablatures, lyrics

Guitar lessons | Add/correct | Request | Top 50 tabs Artists:  A B C D E F G H I J K L M N O P Q R S T U V W X Y Z 0-9

Sleepless Nights Guitar Tabs – Faber Drive

CD, Sheet music, Poster

Do you like Sleepless Nights? Share with your friends now
ChordsChords v2TabsUkulele
Song - "Sleepless Nights"
Band - Faber Drive
Album - Seven Second Surgery
Tuning - Standard (E A D G B E)

Hey guys,
So yeah, this is Sleepless Nights by Faber Drive. Just a note, this is for the 
not the video,
because the video has Brian Melo in it and I'm not sure if it's different. Anyways, here goes.

~~~~~~~~~~~~~~~~~~~~~~~~~~~~~~~~~~~~~~~~~~~~~~~~~~~~~~~~~~~~~~~~~~~~~~~

Guitar 1 - Acoustic (E A D G B e)
Guitar 2 - Electric (E A D G B e)
Guitar 3 - Electric (E A D G B e)
Guitar 4 - Actually it's a bass, but if your playing it on guitar

                                  ~Intro~

Guitar 1 - Dm, Bb, F, C

Guitar 2 (comes in after the whoooooooaaaaahhhhh)
e|--------8------|
B|--6-5-6---5-6--|
G|---------------|
D|---------------|
A|---------------|
E|---------------|


Guitar 3
e|----------8---8---5---5-----------|
B|--8-6-8-6---6---6---6---6-8-5-8-5-|
G|----------------------------------|
D|----------------------------------|
A|----------------------------------|
E|----------------------------------|


                                 ~Verse~
Guitar 1 - Dm, Bb, F, C

Guitar 3
e|----------8---8---5---5-----------|
B|--8-6-8-6---6---6---6---6-8-5-8-5-|
G|----------------------------------|
D|----------------------------------|
A|----------------------------------|
E|----------------------------------|
      Guitar 2 comes in here^
        and plays this- e|--0---0---|
                        B|----1---1-|
                        G|----------|
                        D|----------|
                        A|----------|
                        E|----------|

Guitar 4 (Comes in when drums come in)
e|----------------------------------------|
B|----------------------------------------|
G|----------------------------------------|
D|----------------------------------------|
A|--5-5-5-3-1-1-1-1-3---------3-3-3-1-3-4-|
E|--------------------1-1-1-1-------------|


                                  ~Prechorus~
Guitar 2
e|----------|
B|----------|
G|--2--3--5-|
D|--2--3--5-|
A|--0--1--3-|
E|----------|

                                  ~Chorus~
Guitar 2
e|-------------------------------------|
B|-------------------------------------|
G|--3-3-3-3-----------5-5-5-5--7-7-5-5-|
D|--3-3-3-3--3-3-3-3--5-5-5-5--7-7-3-3-|
A|--1-1-1-1--3-3-3-3--3-3-3-3--5-5-3-3-|
E|-----------1-1-1-1-------------------|

e|------------------------------------|
B|------------------------------------|
G|--3-3-3-3-----------5-5-5-5--2--3-5-|
D|--3-3-3-3--3-3-3-3--5-5-5-5--2--3-5-|
A|--1-1-1-1--3-3-3-3--3-3-3-3--0--1-3-|
E|-----------1-1-1-1------------------|

                                  ~Verse~
Guitar 1 - Dm, Bb, F, C

Guitar 2 (comes in after the whoooooooaaaaahhhhh)
e|--------8------|
B|--6-5-6---5-6--|
G|---------------|
D|---------------|
A|---------------|
E|---------------|


Guitar 3
e|----------8---8---5---5-----------|
B|--8-6-8-6---6---6---6---6-8-5-8-5-|
G|----------------------------------|
D|----------------------------------|
A|----------------------------------|
E|----------------------------------|


                                 ~Verse~
Guitar 1 - Dm, Bb, F, C

Guitar 3
e|----------8---8---5---5-----------|
B|--8-6-8-6---6---6---6---6-8-5-8-5-|
G|----------------------------------|
D|----------------------------------|
A|----------------------------------|
E|----------------------------------|
      Guitar 2 comes in here^
        and plays this- e|--0---0---|
                        B|----1---1-|
                        G|----------|
                        D|----------|
                        A|----------|
                        E|----------|

Guitar 4 
e|----------------------------------------|
B|----------------------------------------|
G|----------------------------------------|
D|----------------------------------------|
A|--5-5-5-3-1-1-1-1-3---------3-3-3-1-3-4-|
E|--------------------1-1-1-1-------------|


                                  ~Prechorus~
Guitar 2
e|----------|
B|----------|
G|--2--3--5-|
D|--2--3--5-|
A|--0--1--3-|
E|----------|

                                  ~Chorus~
Guitar 2
e|-------------------------------------|
B|-------------------------------------|
G|--3-3-3-3-----------5-5-5-5--7-7-5-5-|
D|--3-3-3-3--3-3-3-3--5-5-5-5--7-7-3-3-|
A|--1-1-1-1--3-3-3-3--3-3-3-3--5-5-3-3-|
E|-----------1-1-1-1-------------------|

e|------------------------------------|
B|------------------------------------|
G|--3-3-3-3-----------5-5-5-5--2--3-5-|
D|--3-3-3-3--3-3-3-3--5-5-5-5--2--3-5-|
A|--1-1-1-1--3-3-3-3--3-3-3-3--0--1-3-|
E|-----------1-1-1-1------------------|

When he starts to sing "never let her go", play:
e|----
B|----
G|--5- x16
D|--5-
A|--3-
E|----
    P.M

                                   ~Solo~
Guitar 3
e|----1-0-1-1/8-1-0-1------13-12-13-13/20-13-20-20b22-|
B|--1-------------------13----------------------------|
G|----------------------------------------------------|
D|----------------------------------------------------|
A|----------------------------------------------------|
E|----------------------------------------------------|

e|----1-0-1-1/8-1-0-1---------2020-1515------20b22rb20-|
B|--1-------------------1313------------1313-----------|
G|-----------------------------------------------------|
D|-----------------------------------------------------|
A|-----------------------------------------------------|
E|-----------------------------------------------------|

e|-----------17-19-20b22-|
B|--17-18-20-------------|
G|-----------------------|
D|-----------------------|
A|-----------------------|
E|-----------------------|

                                  ~Bridge~
Guitar 1 - Dm, Bb, F, C

Guitar 3
e|----------8---8---5---5-----------|
B|--8-6-8-6---6---6---6---6-8-5-8-5-|
G|----------------------------------|
D|----------------------------------|
A|----------------------------------|
E|----------------------------------|


                                  ~Chorus~
Guitar 2
e|-------------------------------------|
B|-------------------------------------|
G|--3-3-3-3-----------5-5-5-5--7-7-5-5-|
D|--3-3-3-3--3-3-3-3--5-5-5-5--7-7-3-3-|
A|--1-1-1-1--3-3-3-3--3-3-3-3--5-5-3-3-|
E|-----------1-1-1-1-------------------|

e|------------------------------------|
B|------------------------------------|
G|--3-3-3-3-----------5-5-5-5--2--3-5-|
D|--3-3-3-3--3-3-3-3--5-5-5-5--2--3-5-|
A|--1-1-1-1--3-3-3-3--3-3-3-3--0--1-3-|
E|-----------1-1-1-1------------------|

Then go silent during the synth thingy

...and start going again ;)

and when sings "never let her go" and the guitar sounds different and palm muted, play this:

e|---------------------------|
B|---------------------------|
G|--5--5--5-5-5-5--5--5--5-5-|
D|--5--5--5-5-5-5--5--5--5-5-|
A|--3--3--3-3-3-3--3--3--3-3-|
E|---------------------------|
    P.M

Guitar 2
e|-------------------------------------|
B|-------------------------------------|
G|--3-3-3-3-----------5-5-5-5--7-7-5-5-|
D|--3-3-3-3--3-3-3-3--5-5-5-5--7-7-3-3-|
A|--1-1-1-1--3-3-3-3--3-3-3-3--5-5-3-3-|
E|-----------1-1-1-1-------------------|

e|------------------------------------|
B|------------------------------------|
G|--3-3-3-3-----------5-5-5-5--2--3-5-|
D|--3-3-3-3--3-3-3-3--5-5-5-5--2--3-5-|
A|--1-1-1-1--3-3-3-3--3-3-3-3--0--1-3-|
E|-----------1-1-1-1------------------|

Guitar 3
e|----1-0-1-1/8-1-0-1------13-12-13-13/20-13-20-20b22-|
B|--1-------------------13----------------------------|
G|----------------------------------------------------|
D|----------------------------------------------------|
A|----------------------------------------------------|
E|----------------------------------------------------|

e|----1-0-1-1/8-1-0-1---------2020-1515------20b22rb20-|
B|--1-------------------1313------------1313-----------|
G|-----------------------------------------------------|
D|-----------------------------------------------------|
A|-----------------------------------------------------|
E|-----------------------------------------------------|

e|-----------17-19-20b22-|
B|--17-18-20-------------|
G|-----------------------|
D|-----------------------|
A|-----------------------|
E|-----------------------|

                                  ~Ending~

Guitar 2
e|----------|
B|----------|
G|--2-3-5-7-|
D|--2-3-5-7-|
A|--0-1-3-5-|
E|----------|

And thats the end.

~~~~~~~~~~~~~~~~~~~~~~~~~~~~~~~~~~~~~

/    Slide Up
P.M    Palm Mute
b        Bend
rb       Rebend





Comments


Popular Faber Drive tabs & chords
When Im With You Bass Tabs
By Your Side Chords
Second Chance 2 Chords
Tongue Tied 5 Chords
You And I Tonight 1 Chords
By Your Side Intro Tabs
Second Chance Tabs
When I'm With You Tabs
Second Chance Ukulele
Tongue Tide Ukulele


Song lyrics



↑ Back to top | Tablatures and chords are parodies/interpretations of the original songs. You may use it for private study, scholarship, research or language learning purposes only
© 2014 AZChords.com Contact us | Privacy policy | DMCA | Add/correct tabs | Request tabs | Top 50 tabs