» » »

Faber Drive, Second Chance Tabs (ver.2)

Artists:  A B C D E F G H I J K L M N O P Q R S T U V W X Y Z # 

Second Chance Tabs (ver.2)

Faber Drive Tabs
 Rating:
4/5 (13 votes)
Second Chance lessons Tabs too difficult? Try these video lessons and learn fast
                Faber Drive - Second Chance


***UPDATE***
Fixed intro after I realized I tabbed that first part on the wrong line entirely.. 
people didn't come and go after seeing my noob mistake. Also edited the bridge.
************

This is my very first tab so I tried to make sure everything was correct, which it may
be, but I'm human so sue me (please don't actually sue me).
Faber Drive's an amazing band and I was pretty disappointed that there were so few tabs
there already (which got me motivated into making this one)

Questions? Comments? Corrections? Things you'd like to say to me because you're just
bored? My e-mail address is above.

Don't forget to rate this tab!

Tuning: Standard (EADGBe)

INTRO
Guitar 2 - [0:00]

e|-----------------------------------------------------------------------|
B|12-12-12-10-10-10-9-9-9-9-9-10-10-10-9-9-------------------------------|
G|-----------------------------------------------------------------------|
D|-----------------------------------------------------------------------|
A|-----------------------------------------------------------------------|
E|-----------------------------------------------------------------------|

Guitar 1 - [0:03]

e|-----------------------------------------------------------------------|
B|2-0-5-0--0-5-0--0-5-0--0-5-0-------------------------------------------|
G|-----------------------------------------------------------------------|
D|-----------------------------------------------------------------------|
A|-----------------------------------------------------------------------|
E|-----------------------------------------------------------------------|

Guitar 2 - [0:06]

e|-----------------------------------------------------------------------|
B|-----------------------------------------------------------------------|
G|4-4-4-4-4-4-4------------6----------------4----------------------------|
D|4-4-4-4-4-4-4---2--------6-x16----7-------4-x16------------------------|
A|2-2-2-2-2-2-2---2-x16----4--------7-x16---2----------------------------|
E|----------------0-----------------5------------------------------------|
  . . .

Guitar 1 - [0:07-0:22]

e|-----------------------------------------------------------------------|
B|------12-----12---7---9---7---9----------12-----12---7---9---7---9-----|
G|9-9-9----9-9----9---9---9---9---9--9-9-9----9-9----9---9---9---9---9---|
D|-----------------------------------------------------------------------|
A|-----------------------------------------------------------------------|
E|-----------------------------------------------------------------------|
  . . .    . .    .   .   .   .   .  . . .    . .    .   .   .   .   .

e|-----------------------------------------------------------------------|
B|--------------------------------------------12-----12---7---9---7---9--|
G|------11-11-11-9-9-------11-11-11-9-9-8-8-8----8-8----8---8---8---8---8|
D|9-9-9--------------9-9-9-----------------------------------------------|
A|-----------------------------------------------------------------------|
E|-----------------------------------------------------------------------|
  . . .     .  .   . . . .     .  .   . . . .    . .    .   .   .   .   .

VERSE 1
Guitar 1 - [0:23 - 0:36]  *guitar 2 plays nothing*

e|-----------------------------------------------------------------------|
B|5-5-5-5-5-5-5-5-5-5-5-7-7-4-4-5-----------4-5-4-5-4-5-4-5-4-5-4-5-4-5-4|
G|-----------------------------------------------------------------------|
D|-(repeats 3 times in the verse)--------------(after doing the repeat 3-|
A|----------------------------------------------times thing, follow into-|
E|----------------------------------------------the prechorus with this)-|
  . . . . . . . . . . .                     . . . . . .

I found the phone
I must’ve missed your message
You got it wrong, It wasn’t what your friend said.
I can tell by your tone, I’ve taken it too far again.
Just when I thought I'd gone and fixed it all again.

PRECHORUS
Guitar 1 - [0:37 - 0:55]

e|-----------------------------------------------------------------------|
B|-5-5-4-5-0-5-5-5-5-5-5-5-4-5-0-5-5-5-5---------------------------------|
G|-----------------------------------------------------------------------|  x2
D|-----------------------------------------------------------------------|
A|-----------------------------------------------------------------------|
E|-----------------------------------------------------------------------|

E|-----------------------------------------------------------------------|
B|5-5-5-5-5-5-5-5-7-7-7-7-7-7-7-7----------------------------------------|
G|-----------------------------------------------------------------------|
D|(follow into the chorus with this)-------------------------------------|
A|-----------------------------------------------------------------------|
E|-----------------------------------------------------------------------|

Guitar 2 - [0:37 - 0:55]

e|---------------------------------------------------------------------------------|
B|---------------------------------------------------------------------------------|
G|6-------------4-------9-9-8-8--6---------------------------2------4-4-4-4-4-4-4-4|
D|6-x8---7------4-x12---9-9-8-8--6-x8---7------4------2------2-x8---4-4-4-4-4-4-4-4|
A|4------7-x8---2-------7-7-6-6--4------7-x8---4-x8---2-x8---0------2-2-2-2-2-2-2-2|
E|-------5------------------------------5------2------0----------------------------|
  .      .      .       . . . .  .      .      .      .      .      . . . .

Your friends are telling you, You gotta move on.
Just when I thought I'd gone and wrecked it all again.
You turned around so I could tell you what took so long.
I don’t know why i ever waited to say.
Cuz I’m just dying just to see you again .


CHORUS
Guitar 1 - [0:55 - 1:09]

e|-----------------------------------------------------------------------|
B|------12-----12---7---9---7---9----------12-----12---7---9---7---9-----|
G|9-9-9----9-9----9---9---9---9---9--9-9-9----9-9----9---9---9---9---9---|
D|-----------------------------------------------------------------------|
A|-----------------------------------------------------------------------|
E|-----------------------------------------------------------------------|
  . . .    . .    .   .   .   .   .  . . .    . .    .   .   .   .   .

e|-----------------------------------------------------------------------|
B|--------------------------------------------12-----12---7---9---7---9--|
G|------11-11-11-9-9-------11-11-11-9-9-8-8-8----8-8----8---8---8---8---8|
D|9-9-9--------------9-9-9-----------------------------------------------|
A|-----------------------------------------------------------------------|
E|-----------------------------------------------------------------------|
  . . .     .  .   . . . .     .  .   . . . .    . .    .   .   .   .   .

Guitar 2 - [0:55 - 1:09]

e|-------------------------------------------------------|
B|-------------------------------------------------------|
G|---------6----------------4----------------------------|
D|2--------6-x16----7-------4-x16------------------------|
A|2-x16----4--------7-x16---2----------------------------|
E|0-----------------5------------------------------------|

Instead of holding you, I was holding out.
I should’ve let you in, but I let you down.
You were the first to give ,I was the first to ask.
Now I’m in second place, to get a second chance.

VERSE 2
Guitar 1 - [1:10 - 1:23]  *guitar 2 plays nothing*

e|-----------------------------------------------------------------------|
B|5-5-5-5-5-5-5-5-5-5-5-7-7-4-4-5-----------4-5-4-5-4-5-4-5-4-5-4-5-4-5-4|
G|-----------------------------------------------------------------------|
D|-(repeats 3 times in the verse)--------------(after doing the repeat 3-|
A|----------------------------------------------times thing, follow into-|
E|----------------------------------------------the prechorus with this)-|
  . . . . . . . . . . .                     . . . . . . . . . . . . . . .

I should've known, took you and I for granted
Gotta let you know, I was never underhanded.
Tell by your tone, I’ve taken it too far again.
Just when I thought I'd gone and fixed it all again.

PRECHORUS
Guitar 1 - [1:24 - 1:43]

e|-----------------------------------------------------------------------|
B|-5-5-4-5-0-5-5-5-5-5-5-5-4-5-0-5-5-5-5---------------------------------|
G|-----------------------------------------------------------------------| x2
D|-----------------------------------------------------------------------|
A|-----------------------------------------------------------------------|
E|-----------------------------------------------------------------------|

e|-----------------------------------------------------------------------|
B|5-5-5-5-5-5-5-5-7-7-7-7-7-7-7-7----------------------------------------|
G|-----------------------------------------------------------------------|
D|(follow into the chorus with this)-------------------------------------|
A|-----------------------------------------------------------------------|
E|-----------------------------------------------------------------------|

Guitar 2 - [1:24 - 1:43]

e|---------------------------------------------------------------------------------|
B|---------------------------------------------------------------------------------|
G|6-------------4-------9-9-8-8--6---------------------------2------4-4-4-4-4-4-4-4|
D|6-x8---7------4-x12---9-9-8-8--6-x8---7------4------2------2-x8---4-4-4-4-4-4-4-4|
A|4------7-x8---2-------7-7-6-6--4------7-x8---4-x8---2-x8---0------2-2-2-2-2-2-2-2|
E|-------5------------------------------5------2------0----------------------------|
  .      .      .       . . . .  .      .      .      .      .      . . . .

My friends are telling me they saw you with someone.
Just when I thought I'd gone and wrecked it all again.
You turned around so I could tell you what took so long.
I don’t know why i ever waited to say.
Cuz I’m just dying just to see you again .

CHORUS X2
Guitar 1 - [1:43 - 2:12]

e|-----------------------------------------------------------------------|
B|------12-----12---7---9---7---9----------12-----12---7---9---7---9-----|
G|9-9-9----9-9----9---9---9---9---9--9-9-9----9-9----9---9---9---9---9---|
D|-----------------------------------------------------------------------|
A|-----------------------------------------------------------------------|
E|-----------------------------------------------------------------------|
  . . . . . . . . . . . . . . . . .  . . . . . . . . . . . . . . . . .

e|-----------------------------------------------------------------------|
B|--------------------------------------------12-----12---7---9---7---9--|
G|------11-11-11-9-9-------11-11-11-9-9-8-8-8----8-8----8---8---8---8---8|
D|9-9-9--------------9-9-9-----------------------------------------------|
A|-----------------------------------------------------------------------|
E|-----------------------------------------------------------------------|
  . . . . . . . . . . . . . . . . . . . . . . . . . . . . . . . . . . . .

Guitar 2 - [1:43 - 2:12]

e|-------------------------------------------------------|
B|-------------------------------------------------------|
G|---------6----------------4----------------------------|
D|2--------6-x16----7-------4-x16------------------------|
A|2-x16----4--------7-x16---2----------------------------|
E|0-----------------5------------------------------------|

Instead of holding you, I was holding out.
I should’ve let you in, but I let you down.
You were the first to give, I was the first to ask.
Now I’m in second place, to get a second chance.

My last mistake, putting my friends first.
I tried to laugh it off but I made things worse.
You were the first to give, I was the first to ask.
Now I’m in second place, to get a second chance.

BRIDGE
Guitar 1 - [2:13 - 2:27]

e|14-12-11-9-7-7h9--14-12-11-9-7-7h9--14-12-7-14-12-7-14-9-7-14-4-4-7-7-7-7|
B|-------------------------------------------------------------------------|
G|-------------------------------------------------------------------------|
D|-------------------------------------------------------------------------|
A|-------------------------------------------------------------------------|
E|-------------------------------------------------------------------------|

Guitar 2 - [2:13 - 2:27]

e|---------------------------------|
B|---------------------------------|
G|---------------------------------|
D|---------------------------------|  x2
A|4-4-2-2-2-2-7-7-7-7-2-2-4-4-2-2--|
E|---------------------------------|
  . . . . . . . . . . . . . . . .

e|------------------------------------------------|
B|------------------------------------------------|
G|------------------------------------------------|
D|------------------------------------------------|
A|4-4-2-2-2-2-7-7-4-4-2-2-2-2-7-7-4-4-2-2-2-2-7-7-|
E|------------------------------------------------|
  . . . . . . . . . . . . . . . . . . . . . . . .

What you give is always what you get.
There's so much I haven't given yet. (or theres so much i havent given you)
it seems so different with(out) a second chance.
Just when I thought I'd gone and fixed it all again.

PRECHORUS
Guitar 1 - [2:28 - 2:46]

e|-----------------------------------------------------------------------|
B|-5-5-4-5-0-5-5-5-5-5-5-5-4-5-0-5-5-5-5---------------------------------|
G|-----------------------------------------------------------------------| x2
D|-----------------------------------------------------------------------|
A|-----------------------------------------------------------------------|
E|-----------------------------------------------------------------------|

e|-----------------------------------------------------------------------|
B|5-5-5-5-5-5-5-5--------------------------------------------------------|
G|-----------------------------------------------------------------------|
D|(follow into the chorus with this)-------------------------------------|
A|-----------------------------------------------------------------------|
E|-----------------------------------------------------------------------|
  . . . .

Guitar 2 - [2:28 - 2:46]

e|-----------------------------------------------------------------------|
B|-----------------------------------------------------------------------|
G|6-------------4-------9-9-8-8--6---------------------------2------4-4--|
D|6-x8---7------4-x12---9-9-8-8--6-x8---7------4------2------2-x8---4-4--|
A|4------7-x8---2-------7-7-6-6--4------7-x8---4-x8---2-x8---0------2-2--|
E|-------5------------------------------5------2------0------------------|
  .      .      .       . . . .  .      .      .      .      .

My friends are telling me they saw you with someone.
Just when I thought I'd gone and wrecked it all again.
You turned around so I could tell you what took so long.
I don’t know why I ever waited to say.
Cuz I’m just dying just to see you again

CHORUS X3
Guitar 1 - [2:46 - 3:30]

e|-----------------------------------------------------------------------|
B|------12-----12---7---9---7---9----------12-----12---7---9---7---9-----|
G|9-9-9----9-9----9---9---9---9---9--9-9-9----9-9----9---9---9---9---9---|
D|-----------------------------------------------------------------------|
A|-----------------------------------------------------------------------|
E|-----------------------------------------------------------------------|
  . . .    . .    .   .   .   .   .  . . .    . .    .   .   .   .   .

e|-----------------------------------------------------------------------|
B|--------------------------------------------12-----12---7---9---7---9--|
G|------11-11-11-9-9-------11-11-11-9-9-8-8-8----8-8----8---8---8---8---8|
D|9-9-9--------------9-9-9-----------------------------------------------|
A|-----------------------------------------------------------------------|
E|-----------------------------------------------------------------------|
  . . .     .  .   . . . .     .  .   . . . .    . .    .   .   .   .   .

Guitar 2 - [2:46 - 3:30]

e|-------------------------------------------------------|
B|-------------------------------------------------------|
G|---------6----------------4----------------------------|
D|2--------6-x16----7-------4-x16------------------------|
A|2-x16----4--------7-x16---2----------------------------|
E|0-----------------5------------------------------------|

Instead of holding you, I was holding out.
I should’ve let you in, but I let you down.
You were the first to give, I was the first to ask.
Now I’m in second place, to get a second chance.

My last mistake, putting my friends first.
I tried to laugh it off but I made things worse.
You were the first to give I was the first to ask.
Now I’m in second place to get a second chance.

Instead of holding you, I was holding out? (second chance)
I should’ve let you in, but I let you down (second chance)
You were the first to give, I was the first to ask? (second chance)
Now I’m in second place, to get a second chance.

END WITH:
Guitar 1 - [3:30]

e|17~~~------------------------------------------------------------------|
B|-----------------------------------------------------------------------|
G|-----------------------------------------------------------------------|
D|-----------------------------------------------------------------------|
A|-----------------------------------------------------------------------|
E|-----------------------------------------------------------------------|

Guitar 2 - [3:30]

e|-----------------------------------------------------------------------|
B|-----------------------------------------------------------------------|
G|-----------------------------------------------------------------------|
D|7~~--------------------------------------------------------------------|
A|7~~--------------------------------------------------------------------|
E|5~~--------------------------------------------------------------------|

| /  slide up
| \  slide down
| h  hammer-on
| p  pull-off
| ~  vibrato
| +  harmonic
| x  Mute note
| .  Palm Mute
            
Submit corrections

comments powered by Disqus
↑ Back to top | Faber Drive Tabs for Second Chance. Lyrics for acoustic guitar and electric guitar. Tablatures and chords are parodies/interpretations of the original songs. You may use it for private study, scholarship, research or language learning purposes only