» » »

Faber Drive, It Ends Tabs (ver.2)

Artists:  A B C D E F G H I J K L M N O P Q R S T U V W X Y Z # 

It Ends Tabs (ver.2)

Faber Drive Tabs
 Rating:
4/5 (8 votes)
It Ends lessons Tabs too difficult? Try these video lessons and learn fast
                                        IT ENDS
Tuning:Standard

Hey this is my first tab. I've known this song for a while now & it's by an amazing 
Nobody Has Written a tab yet so Here is a 13 year old kids shot at it!!For lyrics go to 

No actual intro

Verse 1 X1
e------------------|--------------------------------------|
b------------------|--------------------------------------|
g------------------|-7-7-7-7--5-5-5-5--6-6-6-6--4-4-4-4---|
d---7-------5------|-7-7-7-7--5-5-5-5--6-6-6-6--4-4-4-4---|
a--7-7-----5-5-----|-5-5-5-5--3-3-3-3--4-4-4-4--2-2-2-2---|
E-5-------3----(x4)|--------------------------------------|

Chourus X7(Stroke patterns:1st part Down,down,up. 2nd part alternate Down,up)
e--------|-------------|
b--------|-------------|
g--------|-------------|
d-7-7-7--|-5-5-5-5-5---|
a-7-7-7--|-5-5-5-5-5---|
E-5-5-5--|-3-3-3-3-3---|
End in
e---|
b---|
g---|
d-7-|
a-7-|
E-7-|

Verse2
e---------------|-------------------------------------7-8--------|
b---------------|--------787-----------565---------787----7-87---|
g---------------|-----5/7-----------3/5---------5/7--------------|
d---7-------5---|---7-------------5-----------7------------------|
a--7-7-----5-5--|--7-7-----------5-5---------7-7-----------------|
E-5-------3-----|-5-------------3-----------5----------------(X2)|

e------------------------------------|
b------------------------------------|
g-7-7-7-7--5-5-5-5--6-6-6-6--4-4-4-4-|
d-7-7-7-7--5-5-5-5--6-6-6-6--4-4-4-4-|
a-5-5-5-5--3-3-3-3--4-4-4-4--2-2-2-2-|
E------------------------------------|

Chorus again repeated the same way as before

Verse 3 is the same as the chorus

Break
e--------------|---|
b--------------|---|
g--------------|---|
d---7----5-----|-7-|
a--7----5------|-7-|
E-5----3---(X4)|-5-|

Chorus X2 (only use end part after the second time)

Outro
e-----------------|
b-----------------|
g-----------------|
d---7----7---7----|
a--7----7----7----|
E-5----5-----5----|
            
Submit corrections

comments powered by Disqus
↑ Back to top | Faber Drive Tabs for It Ends. Lyrics for acoustic guitar and electric guitar. Tablatures and chords are parodies/interpretations of the original songs. You may use it for private study, scholarship, research or language learning purposes only