» » »

Eyehategod, Sister Fucker Tabs (ver.2)

Artists:  A B C D E F G H I J K L M N O P Q R S T U V W X Y Z # 

Sister Fucker Tabs (ver.2)

Eyehategod Tabs
 Rating:
4/5 (4 votes)
Sister Fucker lessons Tabs too difficult? Try these video lessons and learn fast
1
                (PartIi)
Label: Century Media Records

For questions or whatever, just leave a comment.

/ = slide up to higher note
    "/"  = legato slide (play 1st note, then slide to next note, 2nd note not played)
    "//" = shift slide (play 1st note, then slide to next note, 2nd note is played)
b = bend
r = release bend
~ = vibrato

Dropped C Tuning

==========
INTRO: (after feedback)
D|------------------|------------------|
A|------------------|------------------|
F|------------------|------------------|
C|-7--6--5----------|---------10--9--8-|
G|-7--6--5----------|---------10--9--8-|
C|-7--6--5----------|---------10--9--8-|

VERSE: -- repeat x2
D|------------------|------------------|------------------|--------------------|
A|------------------|------------------|------------------|--------------------|
F|------------------|------------------|------------------|--------------------|
C|------------------|------------------|------------------|--------------------|
G|------------------|------------------|------------------|--------------------|
C|-0--3--0--3/5--3--|-0--3--0--3/5--3--|-0--3--0--3/5--3--|-0--3--0---7--5--3--|

D|------------------|--------------------|------------------|---------------------|
A|------------------|--------------------|------------------|---------------------|
F|------------------|--------------------|------------------|---------------------|
C|------------------|--------------------|------------------|---------------------|
G|------------------|--------------------|------------------|---------------------|
C|-0--3--0--3/5--3--|-0--3--0--3/5br--3--|-0--3--0--3/5--3--|-0--3--0---10--9--8--|

D|------------------|------------------|------------------|--------------------|
A|------------------|------------------|------------------|--------------------|
F|------------------|------------------|------------------|--------------------|
C|-0--3--0--3/5--3--|-0--3--0--3/5--3--|-0--3--0--3/5--3--|-0--3--0---7--5--3--|
G|-0--3--0--3/5--3--|-0--3--0--3/5--3--|-0--3--0--3/5--3--|-0--3--0---7--5--3--|
C|-0--3--0--3/5--3--|-0--3--0--3/5--3--|-0--3--0--3/5--3--|-0--3--0---7--5--3--|

D|------------------|--------------------|------------------|---------------------|
A|------------------|--------------------|------------------|---------------------|
F|------------------|--------------------|------------------|---------------------|
C|-0--3--0--3/5--3--|-0--3--0--3/5br--3--|-0--3--0--3/5--3--|-0--3--0---10--9--8--|
G|-0--3--0--3/5--3--|-0--3--0--3/5br--3--|-0--3--0--3/5--3--|-0--3--0---10--9--8--|
C|-0--3--0--3/5--3--|-0--3--0--3/5br--3--|-0--3--0--3/5--3--|-0--3--0---10--9--8--|

BRIDGE:
D|----------|
A|----------|
F|----------|
C|----------|
G|-0--3--0--|
C|-0--3--0--|

CHORUS:
D|-----------------------------------------------------------------------|
A|-----------------------------------------------------------------------|
F|-----------------------------------------------------------------------|
C|-0---0--10--10-10-10-10--10--------------------------------------------|
G|-0---0--10--10-10-10-10--10--10-9--8--10-10----------------------------| x4
C|-0---0--10--10-10-10-10--10--10-------10-10--10--9---5--4--3---3//7~~~-|

OUTRO CHORD:
D|--------------|
A|--------------|
F|--------------|
C|-0------------|
G|-0------/-\---|
C|-0------------|

THE END!
            
Submit corrections

comments powered by Disqus
↑ Back to top | Eyehategod Tabs for Sister Fucker. Lyrics for acoustic guitar and electric guitar. 1 Tablatures and chords are parodies/interpretations of the original songs. You may use it for private study, scholarship, research or language learning purposes only