» » »

Eyehategod, Sister Fucker Part I Tabs (ver.1)

Artists:  A B C D E F G H I J K L M N O P Q R S T U V W X Y Z # 

Sister Fucker Part I Tabs (ver.1)

Eyehategod Tabs
Rating:
5/5 (2 votes)
Sister Fucker Part I lessons Tabs too difficult? Try these video lessons and learn fast
                Label: Century Media Records

For questions or whatever, just leave a comment.

There is already 1 version for this song,
But this is how I play it. This one seems better anyway. Looks better!

Song was written by Bower, Lacaze, Schultz, Patton, and Williams.
Lyrics were written by M. Williams.

Guitarists: Brian & Jimmy

/ = slide to higher note(s)
\ = slide to lower note(s)
~ = vibrato

Dropped C Tuning

==========
INTRO:
       (bass)            (feedback)
D|------------------|------------------|------------------|------------------|
A|------------------|------------------|------------------|------------------|
F|------------------|------------------|-5/7--------------|------------------|
C|------------------|------------------|-5/7--hold--------|-------0----------|
G|------------------|------------------|-3/5--------------|-/--\--0----/11~~-|
C|------------------|------------------|------------------|-------0----------|


VERSE 1:
D|------------------|------------------|------------------|------------------|
A|------------------|------------------|------------------|------------------|
F|-5/7-7-7-7--------|-5/7-7-7-7--------|-5/7-7-7-7--------|-5/7-7-7-7--------|
C|-5/7-7-7-7-5--3-3-|-5/7-7-7-7-5--3-3-|-5/7-7-7-7-5--3-3-|-5/7-7-7-7-5--3-3-|
G|-3/5-5-5-5-5--3-3-|-3/5-5-5-5-5--3-3-|-3/5-5-5-5-5--3-3-|-3/5-5-5-5-5--3-3-|
C|-----------5--3-3-|-----------5--3-3-|-----------5--3-3-|-----------5--3-3-|


VERSE 2:
D|------------------------|------------------------|
A|------------------------|------------------------|
F|-5/7-7-7--7-7/9\7---7-7-|-5/7-7-7--7-7/9\7---7-7-|
C|-5/7-7-7--7-7/9\7---7-7-|-5/7-7-7--7-7/9\7---7-7-|
G|-3/5-5-5--5-5/7\5---5-5-|-3/5-5-5--5-5/7\5---5-5-|
C|------------------------|------------------------|

D|----------------------|------------------|
A|----------------------|------------------|
F|-9-9-9-9--12-12-12-12-|-5/7--7-7---------|
C|-9-9-9-9--12-12-12-12-|-5/7--7-7---------|
G|-7-7-7-7--10-10-10-10-|-3/5--5-5---/11~~-|
C|----------------------|------------------|


Repeat VERSE 1, then:


CHORUS:     "burn her"         "burn her"         "burn her"         "burn her"
D|------------------|------------------|------------------|------------------|
A|------------------|------------------|------------------|------------------|
F|-5/7-7-7-7--------|-5/7-7-7-7--------|-5/7-7-7-7--------|-5/7-7-7-7--------|
C|-5/7-7-7-7--------|-5/7-7-7-7--------|-5/7-7-7-7--------|-5/7-7-7-7--------|
G|-3/5-5-5-5--------|-3/5-5-5-5--------|-3/5-5-5-5--------|-3/5-5-5-5--------|
C|------------7---6-|------------7---6-|------------7---6-|------------7---6-|


BREAK:
D|------------------|------------------|
A|------------------|------------------|
F|-5/7--------------|------------------|
C|-5/7--hold--------|-------0----------|
G|-3/5--------------|-/--\--0----/11~~-|
C|------------------|-------0----------|


Repeat VERSE 1, then:


VERSE 2-variant:
D|------------------------|------------------------|
A|------------------------|------------------------|
F|-5/7-7-7--7-7/9\7---7-7-|-5/7-7-7--7-7/9\7---7-7-|
C|-5/7-7-7--7-7/9\7---7-7-|-5/7-7-7--7-7/9\7---7-7-|
G|-3/5-5-5--5-5/7\5---5-5-|-3/5-5-5--5-5/7\5---5-5-|
C|------------------------|------------------------|

D|----------------------|---------------------|
A|----------------------|---------------------|
F|-9-9-9-9--12-12-12-12-|-5/7--7-7--7-7--7-7--|
C|-9-9-9-9--12-12-12-12-|-5/7--7-7--7-7--7-7--|
G|-7-7-7-7--10-10-10-10-|-3/5--5-5--5-5--5-5--|
C|----------------------|---------------------|


VERSE 1-variant: (only 2 bars are played instead of 4)
D|------------------|------------------|
A|------------------|------------------|
F|-5/7-7-7-7--------|-5/7-7-7-7--------|
C|-5/7-7-7-7-5--3-3-|-5/7-7-7-7-5--3-3-|
G|-3/5-5-5-5-5--3-3-|-3/5-5-5-5-5--3-3-|
C|-----------5--3-3-|-----------5--3-3-|


Repeat CHORUS, then end song with:

OUTRO:
D|--------------------|
A|--------------------|
F|--------------------|
C|-------0------------|
G|-/--\--0--let ring--|
C|-------0------------|

THE END!
            

comments powered by Disqus
↑ Back to top | Eyehategod Tabs for Sister Fucker Part I. Lyrics for acoustic guitar and electric guitar. Tablatures and chords are parodies/interpretations of the original songs. You may use it for private study, scholarship, research or language learning purposes only