» » »

Eyehategod, Shoplift Tabs (ver.1)

Artists:  A B C D E F G H I J K L M N O P Q R S T U V W X Y Z # 

Shoplift Tabs (ver.1)

Eyehategod Tabs
 Rating:
4/5 (4 votes)
Shoplift lessons Tabs too difficult? Try these video lessons and learn fast
                "Shoplift"
Off the album, "Take as needed for pain"


Drop C Tuning
(CGCFAD)

Riff 1
(0:13-0:25)

D|--------------------------------------------------------------------------|
A|--------------------------------------------------------------------------|
F|--------------------------------------------------------------------------|
C|--------------------------------------------------------------------------|
G|--------------------------------------------------------------------------|
C|-3h5-5~~-3-3-3-3h5-5~~--3-3-3-3h5-5~~--3-3-3-3h5-5~~----------------------|

Riff 2
(0:26-0:38)

D|------------------------------------------------------------------------------|
A|------------------------------------------------------------------------------|
F|------------------------------------------------------------------------------|
C|-3h5-5-5-3-5-9-8-4-3-2--------------------------------------------------------|
G|-3h5-5-5-3-5-9-8-4-3-2--------------------------------------------------------|
C|-3h5-5-5-3-5-9-8-4-3-2--four times--------------------------------------------|

Riff 3
(0:39-0:51)

D|-------------------------------------------------------------------------------|
A|-------------------------------------------------------------------------------|
F|-------------------------------------------------------------------------------|
C|-4-3--6-5--8-7-6---------------------------------------------------------------|
G|-4-3--6-5--8-7-6---------------------------------------------------------------|
C|-4-3--6-5--8-7-6--four times again---------------------------------------------|

(0:52-1:04) Repeat Riff 1 and (1:05-1:17) repeat Riff 2 and then from (1:18-1:29) repeat Riff 3.

Riff 4
(1:30-1:40)

D|-------------------------------------------------------------------------|
A|-------------------------------------------------------------------------|
F|-------------------------------------------------------------------------|
C|-------------------------------------------------------------------------|
G|-------------------------------------------------------------------------|
C|-5-5-5-3~~~3~~-0-5-5-5b-3~~~---------------------------------------------|

Riff 5
(1:41-end of song)

D|--------------------------------------------------------------------------|
A|--------------------------------------------------------------------------|
F|--------------------------------------------------------------------------|
C|---------------------------------------------------------5-5-5-3--3-------|
G|---------------------------------------------------------5-5-5-3--3-------|
C|-3-5-8-10~~-10/14-13-12-11-5-3-5-8-10~~-10/14-13-12-11-5-5-5-5-3--3-0-----|

D|---------------------------------------------------------------------------|
A|---------------------------------------------------------------------------|
F|---------------------------------------------------------------------------|
C|-5-5-5-3--3----------------------------------------------------------------|
G|-5-5-5-3--3----------------------------------------------------------------|
C|-5-5-5-3--3-0-3-5-8-10~~-10/14-13-12-11-5-3-5-8-10~~-10/14-13-12-11-5------|

D|--------------------------------------------------------------------------|
A|--------------------------------------------------------------------------|
F|--------------------------------------------------------------------------|
C|-5-5-5-3--3---5-5-5-3--3--------------------------------------------------|
G|-5-5-5-3--3---5-5-5-3--3--------------------------------------------------|
C|-5-5-5-3--3-0-5-5-5-3--3-0-5-5-5-3~~~~-5-5-5-3~~~~-5-5-5-3~~~~-5-5-5-3~~~~|

D|----------------------------------------------------------------------------|
A|----------------------------------------------------------------------------|
F|-----------------------------------------------------------------h----------|
C|-------------------------------------------------------- 5-5-5-3-o----------|
G|-------------------------------------------------------- 5-5-5-3-l----------|
C|-3-5-8-10~~-10/14-13-12-11-5-3-5-8-10~~-10/14-13-12-11-5-5-5-5-3-d----------|
            
Submit corrections

comments powered by Disqus
↑ Back to top | Eyehategod Tabs for Shoplift. Lyrics for acoustic guitar and electric guitar. Tablatures and chords are parodies/interpretations of the original songs. You may use it for private study, scholarship, research or language learning purposes only