» » »

Masters Of Legalized Confusion Tabs (ver.1)

Artists:  A B C D E F G H I J K L M N O P Q R S T U V W X Y Z # 

Masters Of Legalized Confusion Tabs (ver.1)

Eyehategod
Rating:
0/5 (0 votes)

Hard to play? Try these video lessons and learn fast.
                Band: EyeHateGod

I tune at a step down, but I think they tune one and a half steps down.

Riff A x4
|-------------------|
|-------------------|
|-------------------|
|-------------------|
|-------------------|
|-/5~~~-3-0-2-3-4-0-|

Riff B x1
|----------------------------------|
|----------------------------------|
|----------------------------------|
|-7---7--7--7--7--7--7-------------|
|-5---5--5--5--5--5--5-----7---7-5-|
|------------------------0-5-0-5-3-|

Riff C x4
|-------------------|
|-------------------|
|-------------------|
|-------------------|
|-/7----5-2-4-5-6-2-|
|-/5----3-0-2-3-4-0-|

Riff B x1
Riff C x4
Riff B x1

Riff D1 x1
|------------------------------------------------------|
|------------------------------------------------------|
|------------------------------------------------------|
|-------------7-9--9--9--------------------------------|
|-2---5--7-7--5-7--7--7---5---4---2-2-2--5---4---------|
|-0---3--5-5--------------3---2---0-0-0--3---2---0-3~~-|

Riff D2 x1
|-----------------------------------------------------------------------|
|-----------------------------------------------------------------------|
|-----------------------------------------------------------------------|
|-------------7-9--9--9-------------------------------------------------|
|-2---5--7-7--5-7--7--7---5---4---2-2-2--5---4---2-2-2--5---4---------2-|
|-0---3--5-5--------------3---2---0-0-0--3---2---0-0-0--3---2---0-3~~-0-|

Riff E1 x1
|---------------------------------------|
|---------------------------------------|
|---------------------------------------|
|-------------------------5-------------|
|---------------------5-7---7-5---------|
|-0-0--7--6--5--0-5-7-----------7-5-6-5-|

Riff E2 x1
|----------------------------------|
|----------------------------------|
|----------------------------------|
|----------------------------------|
|------------------------8---7---6-|
|-0-0--7--6--5--0-6-7-5--6---5---4-|

Riff E3 x4
|-----------------------------------|
|-----------------------------------|
|-----------------------------------|
|---------------------5-------------|
|-2--9--8--7------5-7---7-5-----8-7-|
|-0--7--6--5--5-7-----------7-5-6-5-|

Riff F x4
|----------------------------------|
|----------------------------------|
|----------------------------------|
|----------------------------------|
|-2----2--------2--------2-------2-|
|-0----0---3~---0---5~---0---3~--0-|

Riff E3 x4
Riff F x4
            
Hard to play? Try these video lessons and learn fast. | Correct




comments powered by Disqus
↑ Back to top | Tablatures and chords are parodies/interpretations of the original songs. You may use it for private study, scholarship, research or language learning purposes only