» » »

Godsong Tabs (ver.1)

Artists:  A B C D E F G H I J K L M N O P Q R S T U V W X Y Z # 

Godsong Tabs (ver.1)

Eyehategod
Rating:
0/5 (0 votes)

Tabs too difficult? Try these video lessons and learn fast.
                Tuning DGCFAD
A
|-----------------------------------------------------|
|-----------------------------------------------------|
|-----------------------------------------------------|
|-----------------------------------------------------|
|-7-------5-------5-4-3-2--7-------6----------7-7-7-7-|
|-5-0-0-0-3-0-0-0-3-2-1-0--5-0-0-0-4-0-0-0--0-5-5-5-5-|
    M M M   M M M            M M M   M M M  M  
 
B
|--------------------------------------------------|
|--------------------------------------------------|
|--------------------------------------------------|
|--------------------------------------------------|
|-7-------5-------5-4-3-2--7-------5-------5-4-3-2-|
|-5-0-0-0-3-0-0-0-3-2-1-0--5-0-0-0-3-0-0-0-3-2-1-0-|
    M M M   M M M            M M M   M M M

B1
|--------------------------------------|
|--------------------------------------|
|--------------------------------------|
|--------------------------------------|
|-7777-6666-5-4-3-2--7777-6666-5-4-3-2-|
|-5555-4444-3-2-1-0--5555-4444-3-2-1-0-|
  
C
|---------------------------------|
|---------------------------------|
|---------------------------------|
|---------------------------------|
|-7-888888-5-55555555-22222222222-|
|-5-666666-3-33333333-00000000000-|
   s

C1
|--------------------------------------|
|--------------------------------------|
|--------------------------------------|
|--------------------------------------|
|-7-888888-5-55555555-2-222222-7-7-7-7-|
|-5-666666-3-33333333-0-000000-5-5-5-5-|
   s

B
B1
C

C2
|---------------------|
|---------------------|
|---------------------|
|---------------------|
|-7-888888-5-55555555-|
|-5-666666-3-33333333-|
   s

D x 4
|------------------|
|------------------|
|------------------|
|------------------|
|-2-22222-2--6-5-4-|
|-0-00000-0--4-3-2-|
    MMMMM

E x 4
|--------------------|
|--------------------|
|--------------------|
|--------------------|
|-2-22-3-4-3-2-9-8-7-|
|-0-00-1-2-1-0-7-6-5-|
              s

A
B
B1
C

C3
|------------------------|
|------------------------|
|------------------------|
|------------------------|
|-7-888888-5-55555555--2-|
|-5-666666-3-33333333--0-|
   s
            
Tabs too difficult? Try these video lessons and learn fast.




comments powered by Disqus
↑ Back to top | Tablatures and chords are parodies/interpretations of the original songs. You may use it for private study, scholarship, research or language learning purposes only