» » »

Dixie Whiskey Bass tabs (ver.1)

Artists:  A B C D E F G H I J K L M N O P Q R S T U V W X Y Z # 

Dixie Whiskey Bass tabs (ver.1)

Eyehategod
Rating:
0/5 (0 votes)

Hard to play? Try these video lessons and learn fast.
                
                      Dixie Whisky - EYEHATEGOD
-----------------------------------------------------------------------------------------------|


Tuning: Full Step Down: D G C F


Intro:

F|----------------------------------------------|
C|----------------------------------------------|
G|---------3---------5---3---3---3-------3------|
D|-0-3-4-5---5-4-3-0-------5-------5-3-5---5-3--| x4

Riff 1:
This is as same as the intro

F|----------------------------------------------|
C|----------------------------------------------|
G|---------3---------5---3---3---3-------3------|
D|-0-3-4-5---5-4-3-0-------5-------5-3-5---5-3--| x2

Riff 2:


F|----------------------------------------------|
C|----------------------------------------------|
G|-------------------------3--------------------|
D|-3---0-0-0-0--0-0--0-3-5---5-3-0--------------| x4

Riff 3:

F|----------------------------------------------|
C|----------------------------------------------|
G|-----5-3-0---------------3--5-----------------|
D|-0-0-------3----3-3--3-5----------------------| x3

Riff 4

F|----------------------------------------------|
C|----------------------------------------------|
G|-----5-3-0-----------------3------------------|
D|-0-0-------0----3-3--0-3-5---5-3-0------------| x1

Repeat riffs:
Riff 2 x3
Riff 1 x4
Riff 2 x4
Riff 3 x3
Riff 4 x1
Riff 2 x4

Outro:

G|----------------------------------------------|
D|----------------------------------------------|
A|----------------------------------------------|
E|-0-0------------------------------------------|

===============================================================================
            
Hard to play? Try these video lessons and learn fast. | Correct




comments powered by Disqus
↑ Back to top | Tablatures and chords are parodies/interpretations of the original songs. You may use it for private study, scholarship, research or language learning purposes only