» » »

Depress Tabs (ver.1)

Artists:  A B C D E F G H I J K L M N O P Q R S T U V W X Y Z # 

Depress Tabs (ver.1)

Eyehategod
Rating:
0/5 (0 votes)

Hard to play? Try these video lessons and learn fast.
                                   EYEHATEGOD: Depress
             
                   from "In the Name of Suffering"


Tune 1 1/2 steps down to C#

Intro (bass)  x 2
----------------------------------------------------------------
----------------------------------------------------------------
----------------------------------------------------------------
-0---------------0-------0---0---5--/7---7-------7-------0---0--

----------------------------------------------------------------|
----------------------------------------------------------------|
----------------------------------------------------------------|
-3--/5---5-------5-------0---0---0---2---3---0---2---0---2---0--|


Guitar riff - play x 4, slow it down and play x 2
-----------------------------------------------------------------
-----------------------------------------------------------------
-----------------------------------------------------------------
-----------------------------------------------------------------
-2---------------2-------2---2---7---9---9-------9-------------2-
-0---------------0-------0---0---5--/7---7-------7-------------0-
"I...					     let     my      self

-----------------------------------------------------------------|
-----------------------------------------------------------------|
-----------------------------------------------------------------|
-----------------------------------------------------------------|
-5---7---7-------7---------------2---4---5---2---4---2---4---2---|
-3--/5---5-------5---------------0---2---3---0---2---0---2---0---|
 go.... "				    pm................]



fast part - play four times
-----------------------------------------------------------------|
-----------------------------------------------------------------|
-----------------------------------------------------------------|
-2-2-2-2-2-2-2-2-7/8/9-8-8-8-7-7---------------------------------|
-0-0-0-0-0-0-0-0-5/6/7-6-6-6-5-5-5-5-5-5-5-5-5-5-5-5-5-5-3-3-3-3-|
---------------------------------3-3-3-3-3-3-3-3-3-3-3-3-1-1-1-1-|


slow riff - play x 6
-----------------------------------------------------------------|
-----------------------------------------------------------------|
-----------------------------------------------------------------|
-----------------------------------------------------------------|
-2-------2---2---4---3-------2----------2---2---5---2---5---2----|
-0-------0---0---2---1-------0----------0---0---3---0---3---0----|


play x 4, then play previous riff again four times
-----------------------------------------------------------------|
-----------------------------------------------------------------|
-----------------------------------------------------------------|
-----------------------------------------------------------------|
-2-------2---2---2---2---2---2---2---2---2---2---5---2---5---2---|
-0-------0---0---0---0---0---0---0---0---0---0---3---0---3---0---|
         pm...................................]

 
2:49
bass part 
-----------------------------------------------------------------
-----------------------------------------------------------------
-----------------------------------------------------------------
-0---2---3---0---6---5---0---2---3---0---6---5---6---5---3-------

-----------------------------------------------------------------|
-----------------------------------------------------------------|
-----------------------------------------------------------------|
-0---2---3---0---6---5---0---2---3---0---2-------1---------------|


Guitar riff (play once normal, then once w/palm mute, then once
		 again normal)
-----------------------------------------------------------------
-----------------------------------------------------------------
-----------------------------------------------------------------
-----------------------------------------------------------------
-2---4---5---2---8---7---2---4---5---2---8---7---8---7---5-------
-0---2---3---0---6---5---0---2---3---0---6---5---6---5---3-------

-----------------------------------------------------------------|
-----------------------------------------------------------------|
-----------------------------------------------------------------|
-----------------------------------------------------------------|
-2---4---5---2---8---7---2---4---5---2---4-------3---------------|
-0---2---3---0---6---5---0---2---3---0---2-------1---------------|

play this four times
-----------------------------------------------------------------
-----------------------------------------------------------------
-----------------------------------------------------------------
-----------------------------------------------------------------
-2---------------5---------------4-------------------------------
-0---------------3---------------2-------------------------------

-----------------------------------------------------------------|
-----------------------------------------------------------------|
-----------------------------------------------------------------|
-----------------------------------------------------------------|
-(4)-------------------------------------------------------------|
-(2)-------------------------------------------------------------|
 one guitar bends here


play this twice, once palm muted, then once again normal
-----------------------------------------------------------------
-----------------------------------------------------------------
-----------------------------------------------------------------
-----------------------------------------------------------------
-2---------------5---------------4---------------5---------------
-0---------------3---------------2---------------3---------------

-----------------------------------------------------------------|
-----------------------------------------------------------------|
-----------------------------------------------------------------|
-----------------------------------------------------------------|
-4---------------5---------------4---------------5---------------|
-2---------------3---------------2---------------3---------------|


riff x4
-----------------------------------------------------------------
-----------------------------------------------------------------
-----------------------------------------------------------------
-----------------------------------------------------------------
-2---------------5---------------4---------------4---------------
-0---------------3---------------2---------------2---------------
					         pm..............

-----------------------------------------------------------------|
-----------------------------------------------------------------|
-----------------------------------------------------------------|
-----------------------------------------------------------------|
-4---------------4---------------4---------------4---------------|
-2---------------2---------------2---------------2---------------|
..................................................]


Play this riff once, then once *reallllly* slow
-----------------------------------------------------------------
-----------------------------------------------------------------
-----------------------------------------------------------------
-----------------------------------------------------------------
-2---------------5---------------4-------------------------------
-0---------------3---------------2-------------------------------

-----------------------------------------------------------------|
-----------------------------------------------------------------|
-----------------------------------------------------------------|
-----------------------------------------------------------------|
-(4)-------------------------------------------------------------|
-(2)-------------------------------------------------------------|

(end)


tab explanation:

/ slide up
\ slide down
pm...] palm mute
(2) hold this note w/out playing
            
Hard to play? Try these video lessons and learn fast. | Correct




comments powered by Disqus
↑ Back to top | Tablatures and chords are parodies/interpretations of the original songs. You may use it for private study, scholarship, research or language learning purposes only