» » »

Blank Tabs (ver.1)

Artists:  A B C D E F G H I J K L M N O P Q R S T U V W X Y Z # 

Blank Tabs (ver.1)

Eyehategod
Rating:
5/5 (1 vote)

Tabs too difficult? Try these video lessons and learn fast.
                "Blank"
Off the album, "Take As Needed For Pain"


Drop C Tuning
(CGCFAD)

Riff 1
(0:00-1:08)

D|-------------------------------------------------------------------------|
A|-------------------------------------------------------------------------|
F|--5-5-5-------3-3-3------------------------------------------------------|
C|--5-5-5-5-5-5-3-3-3-3-3-3-2-3-1-0----------------------------------------|
G|--3-3-3-5-5-5-1-1-1-3-3-3-2-3-1-0----------------------------------------|
C|--------5-5-5-------3-3-3-2-3-1-0-p-a-l-m-m-u-t-e------------------------|

Riff 2
(1:19-2:11)
D|-------------------------------------------------------------------------|
A|-------------------------------------------------------------------------|
F|-------------------------------------------------------------------------|
C|-0------6-5-0-5-3-0-3-0~-------------------------------------------------|
G|-0-/5-3-6-5-0-5-3-0-3-0~-------------------------------------------------|
C|-0------6-5-0-5-3-0-3-0~-------------------------------------------------|

Riff 3
(2:12-3:10)
D|-------------------------------------------------------------------------|
A|-------------------------------------------------------------------------|
F|---------3-4-5-----------------------------------------------------------|
C|-0-1-2-3-3-4-5-----------------------------------------------------------|
G|-0-1-2-3-1-2-3-----------------------------------------------------------|
C|-0-1-2-3-------/5-4~~~---------------------------------------------------|

Riff 4
(3:38-4:59)
D|-------------------------------------------------------------------------|
A|-------------------------------------------------------------------------|
F|-------------------------------------------------------------------------|
C|-0--------------------------------------------------5-4-3-0--------------|
G|-0--------------------------------------------------5-4-3-0--------------|
C|-0-p-a-l-m-m-u-t-e-x13-3-5-3~3-3~~3-3-0-5-7-5~~5-5~~5-4-3-0--------------|

Riff 5
(5:00-5:16)
D|-------------------------------------------------------------------------|
A|-------------------------------------------------------------------------|
F|-------------------------------------------------------------------------|
C|-0-0-0-5-7-0-0-0-3-5-0-0-0-5-7--------0----------------------------------|
G|-0-0-0-5-7-0-0-0-3-5-0-0-0-5-7--------0----------------------------------|
C|-0-0-0-5-7-0-0-0-3-5-0-0-0-5-7-/6-5-3-0----------------------------------|

Switch back to riff 4 from 5:17-5:48 and then back to riff 5 at 5:49-6:14 when it switches to....

Riff 6
(6:15-end)
D|---------------------------------------------------------------------------|
A|---------------------------------------------------------------------------|
F|---------------------------------------------------------------------------|
C|-0-0-0-5-7-0-0-0-3-5-0-0-0-5-7----------------------5~~--------------------|
G|-0-0-0-5-7-0-0-0-3-5-0-0-0-5-7----------------------5~~--------------------|
C|-0-0-0-5-7-0-0-0-3-5-0-0-0-5-7-/6-5-3-8~~~~~~\/6-5-3-5~~\/6-5-3-8~~~~\/6-5-|

D|----------------------------------------------------------------------------|
A|----------------------------------------------------------------------------|
F|----------------------------------------------------------------------------|
C|---5~~--------0~~-----------------------------------------------------------|
G|---5~~--------0~~-----------------------------------------------------------|
C|-3-5~~\/6-5-3-0~~h-o-l-d----------------------------------------------------|


address above.
This is all MY tab. Remember theres a lot of feedback going on in this song so thats why
there are gaps in time between the riffage. -JB
            
Tabs too difficult? Try these video lessons and learn fast.




comments powered by Disqus
↑ Back to top | Tablatures and chords are parodies/interpretations of the original songs. You may use it for private study, scholarship, research or language learning purposes only