>
 >
Warheads 1

Warheads 1 Guitar Tabs

Extreme - Warheads 1 chords, tabs, tablatures, lyrics

Guitar lessons | Add/correct | Request | Top 50 tabs Artists:  A B C D E F G H I J K L M N O P Q R S T U V W X Y Z 0-9

Warheads 1 Guitar Tabs – Extreme

CD, Sheet music, Poster

Do you like Warheads 1? Share with your friends now
TabsTabs v2
Here is the tab for Warheads by Extreme

Notes:
Play this song loud,fast and with a lot of distortion!!!
Tune guitar down a half step to play along with the record...

INTRO:
------------------------------------------------------|------------------------ 
------------------------------------------------------|------------------------ 
-----0------------------------------------------------|------------------------ 
4h5----------0----------2-------0-------0----------2--|--------2--------2------ 
--------4h5-----0--------------------------0----------|------------------------ 
-------------------3p0-----2h3-----4h5--------3h0-----|--3--3-----3--3-----3--- 


------------------------|--------------------------------------------|--------- 
------------------------|--------------------------------------------|--------- 
------------------------|--------------------------------------------|--------- 
---2--------2--------2--|--------2-----------2--------1-----------1--|--4h5---- 
------------------------|--------------------------------------------|--------- 
3-----3--3-----3--3-----|--2--2-----2--2--2-----1--1-----1--1--1-----|--------- 


                                                  VERSE:(mostly drums) 
-------------------------------------------------|------|---------------------- 
-------------------------------------------------|------|---------------------- 
0------------------------------------------------|---2--|-----2-----2-----2---- 
--------0----------2-------0-------0----------2--|---2--|-----2-----2-----2---- 
---4h5-----0--------------------------0----------|---0--|-----0-----0-----0---- 
--------------3p0-----2h3-----4h5--------3h0-----|------|--3-----3-----3------- 


|--------------------|------------|-----------------|--------------------|----- 
|--------------------|------------|-----------------|--------------------|----- 
|-----2-----2-----2--|----2----2--|--9--x--9-7-6-4--|-----2-----2-----2--|----- 
|-----2-----2-----2--|----2----2--|-----------------|-----2-----2-----2--|----- 
|-----0-----0-----0--|--3p0--3p0--|--7--x--7\5\4\2--|-----0-----0-----0--|----- 
|--3-----3-----3-----|------------|-----------------|--3-----3-----3-----|----- 

           BRIDGE:
----------|------|-----|-----|-----|--2-3--2-3--2-3--2-3--2-3--|--2-3--2-3----- 
----------|---5--|--5--|--7--|--7--|--1-2--1-2--1-2--1-2--1-2--|--1-2--1-2----- 
--2----2--|---5--|--6--|--7--|--8--|--2/3--2/3--2/3--2/3--2/3--|--2/3--2/3----- 
--2----2--|---5--|--5--|--7--|--7--|---------------------------|--------------- 
3p0--3p0--|------|-----|-----|-----|---------------------------|--------------- 
----------|------|-----|-----|-----|---------------------------|--------------- 


---------------------|   For the chorus,just use the chords 
---------------------|   E5,B5,D5 and A5.Listen to the records 
---------------------|   To get the rhythm...
---------------------|
---------------------|
4--4--4--4--4--4--4--|


SOLO:
-----------5--7--9--7--5-----5--7--9--7--5--|------7------
--------------------------------------------|-------------
--------9-----------------9-----------------|--10---------
--------------------------------------------|------------- 
--------------------------------------------|------------- 
--------------------------------------------|-------------



9--10--9--7------7--9--10--7--|-----5--7--8--7--5-----5--7--8--7--5--|-----3--- 
------------------------------|--------------------------------------|--------- 
-------------10---------------|--8-----------------8-----------------|--7------ 
------------------------------|--------------------------------------|--------- 
------------------------------|--------------------------------------|--------- 
------------------------------|--------------------------------------|--------- 


5--7--5--3-----3--5--7--5--3--|------------------------------------------------ 
------------------------------|------------------------------------------------ 
------------7-----------------|-----------------------------6--7--9------------ 
------------------------------|-----------6--7--9--6--7--9-----------6--7--9--- 
------------------------------|------------------------------------------------ 
------------------------------|--9--9--9--------------------------------------- 


------------------5--7--9--|--------------------------------------------------- 
---------5--7--9-----------|----------------------------------------------16--- 
6--7--9--------------------|----------------------------------13--14--16------- 
---------------------------|----------------------13--14--16------------------- 
---------------------------|----------11--12--14-------------------------------
---------------------------|--12--12------------------------------------------- 


--------16--17--19--17--16----------------------|------------------------------ 
17--19----------------------19--17--16----------|------13--15/17--13------13--- 
----------------------------------------18--16--|--12-----------------12------- 
------------------------------------------------|------------------------------ 
------------------------------------------------|------------------------------ 
------------------------------------------------|------------------------------ 


---------------------------|--------------------------------------------------- 
15--13--15/17--15--13------|------13--15/17--13------13--15--13--15/17--15----- 
-----------------------12--|--13-----------------13---------------------------- 
---------------------------|--------------------------------------------------- 
---------------------------|--------------------------------------------------- 
---------------------------|--------------------------------------------------- 


--------|--------------------------------------------------------|------------- 
13------|------13--15/17--13------13--15--13--15/17--15--13------|------13----- 
----13--|--14-----------------14-----------------------------14--|--14--------- 
--------|--------------------------------------------------------|------------- 
--------|--------------------------------------------------------|------------- 
--------|--------------------------------------------------------|------------- 

                                                Here,Nuno uses a technique where
                                                he places his right hand on the
                                                fretboard,holding down the 10th
                                                fret,then the 9th,then the 8th,
                                                whilst pulling off and hammering
                                                on with the left hand.

---------------15--13h15p13--12--13p12---------|------------------------------- 
15/17--13-------------------------------15p13--|--17p13p10h13p10h13--17p13----- 
-----------14----------------------------------|------------------------------- 
-----------------------------------------------|------------------------------- 
-----------------------------------------------|------------------------------- 
-----------------------------------------------|------------------------------- 


----------------------------------------------------|-------------------------- 
p10h13p10h13--17p13p10h13p10h13--17p13p10h13p10h13--|--17p13p9h13p9h13--------- 
----------------------------------------------------|-------------------------- 
----------------------------------------------------|-------------------------- 
----------------------------------------------------|-------------------------- 
----------------------------------------------------|-------------------------- 


---------------------------------------------------|--------------------------- 
17p13p9h13p9h13--17p13p9h13p9h13--17p13p9h13p9h13--|--17p13p8h13p8h13---------- 
---------------------------------------------------|--------------------------- 
---------------------------------------------------|--------------------------- 
---------------------------------------------------|--------------------------- 
---------------------------------------------------|--------------------------- 

                                                    Here,bend the lower note to
                                                    the pitch of the higher note.

---------------------------------------------------|---------------17~~~--|---- 
17p13p8h13p8h13--17p13p8h13p8h13--17p13p8h13p8h13--|--7-----10------------|---- 
---------------------------------------------------|--9-----12------------|---- 
---------------------------------------------------|----------------------|---- 
---------------------------------------------------|----------------------|---- 
---------------------------------------------------|----------------------|---- 


   Now "Well I've seen blackheads,whiteheads" etc. part 
----------|--------|--------|--------|----------------------------------------- 
----------|--------|--------|--------|----------------------------------------- 
----------|--7--2--|--------|--7--2--|----------------------------------------- 
----5--2--|--7--2--|--5--2--|--7--2--|----------------------------------------- 
----5--2--|--5--0--|--5--2--|--5--0--|----------------------------------------- 
----3--0--|--------|--3--0--|--------|----------------------------------------- 

Then back to bridge,then chorus,then it stops,and returns with the chorus once
more...


----5h8--- Hammeron
----(8)--- Ghost Note
----5p8--- Pulloff
----5/8--- Slide Up
-----x---- Dead Note
----5\8--- Slide Down
||------|| Repeat Start & End
----5~~~-- Vibrato

Rhythm:
  w = whole note            W = dotted whole
  h = half note             H = dotted half
  q = quarter note          Q = dotted quarter
  e = eighth note           E = dotted eighth
  s = sixteenth note        S = dotted sixteenth
  ^ = triplet





Comments


Popular Extreme tabs & chords
Little Girls Bass Tabs
Decadence Dance Tabs
Interface Tabs
Its A Monster 1 Tabs
Lil Jack Horny Intro Tabs
Love Of My Life 1 Tabs
Money Tabs
More Than Words 1 Tabs
Rise 'n Shine Tabs
When I'm President 1 Tabs


Song lyrics



↑ Back to top | Tablatures and chords are parodies/interpretations of the original songs. You may use it for private study, scholarship, research or language learning purposes only
© 2014 AZChords.com Contact us | Privacy policy | DMCA | Add/correct tabs | Request tabs | Top 50 tabs