>
 >
More Than Words 6

More Than Words 6 Guitar Tabs

Extreme - More Than Words 6 chords, tabs, tablatures, lyrics

Guitar lessons | Add/correct | Request | Top 50 tabs Artists:  A B C D E F G H I J K L M N O P Q R S T U V W X Y Z 0-9

More Than Words 6 Guitar Tabs – Extreme

CD, Sheet music, Poster

Do you like More Than Words 6? Share with your friends now
Bass TabsChordsChords v2Chords v3Chords v4TabsTabs v2Tabs v3Tabs v4Tabs v5Tabs v6Tabs v7Ukulele
 -------------------------------------------------------------------------------
 -------------------------------------------------------------------------------
 
 Updated Version (Previous Version5)

 Tuning: Eb Ab db gb bb e'b (= Flat Tuning), Standard Tuning also possible.



 This is the whole song, I think it's the best and most detailed Tab in the Web.
 Have Fun!
 


 [Intro]

      G               Cadd9           Am7     Am/G    C       D   Dsus4

 e|-------3-x-----3-x-----3-x---3---x-----0-x---3---x-----0-x-2---3-x----------|
 B|-------3-x-3---3-x-3---3-x---3-3-x-1---1-x---1-1-x-1---1-x-3---3-x----------|
 G|-------0-x-0---0-x-0---0-x---0-0-x-0---0-x---0-0-x-0---0-x-2-2-2-x----------|
 D|---------x-------x-------x-------x-------x-------x-------x-0-----x----------|
 A|---------x-2-----x-3-----x-3-3-3-x-0-----x-0-0-0-x-3-----x-------x----------|
 E|---3-----x-------x-------x-------x-------x-------x-------x-------x----------|


      G               Cadd9           Am7     Am/G    C       D   Dsus4

 e|-------3-x-----3-x-----3-x---3---x-----0-x---3---x-----0-x-2---3-x----------|
 B|---3---3-x-3---3-x-3---3-x---3-3-x-1---1-x---1-1-x-1---1-x-3---3-x----------|
 G|---0---0-x-0---0-x-0---0-x---0-0-x-0---0-x---0-0-x-0---0-x-2-2-2-x----------|
 D|---------x-------x-------x-------x-------x-------x-------x-0-----x----------|
 A|---------x-2-----x-3-----x-3-3-3-x-0-----x-0-0-0-x-3-----x-------x----------|
 E|---3-----x-------x-------x-------x-------x-------x-------x-------x----------|



 [Verse 1]


      G               Cadd9           Am7             C       D   Dsus4
  
 e|-------3-x-----3-x-----3-x---3---x-----0-x---3---x-----0-x-2---3-x----------|
 B|---3---3-x-3---3-x-3---3-x---3-3-x-1---1-x---1-1-x-1---1-x-3---3-x----------|
 G|---0---0-x-0---0-x-0---0-x---0-0-x-0---0-x---0-0-x-0---0-x-2-2-2-x----------|
 D|---------x-------x-------x-------x-------x-------x-------x-0-----x----------|
 A|---------x-2-----x-3-----x-3-3-3-x-0-----x-0-0-0-x-3-----x-------x----------|
 E|---3-----x-------x-------x-------x-------x-------x-------x-------x----------|


      G               Cadd9           Am7             C       D   Dsus4

 e|-------3-x-----3-x-----3-x---3---x-----0-x---3---x-----0-x-2---3-x----------|
 B|---3---3-x-3---3-x-3---3-x---3-3-x-1---1-x---1-1-x-1---1-x-3---3-x----------|
 G|---0---0-x-0---0-x-0---0-x---0-0-x-0---0-x---0-0-x-0---0-x-2-2-2-x----------|
 D|---------x-------x-------x-------x-------x-------x-------x-0-----x----------|
 A|---------x-2-----x-3-----x-3-3-3-x-0-----x-0-0-0-x-3-----x-------x----------|
 E|---3-----x-------x-------x-------x-------x-------x-------x-------x----------|


     Em              Am7             D               G       D/F#

 e|-------0-x-----0-x-----0-x---3---x---2---x-2-x-0-x-----3-x-----0-x----------|
 B|---0---0-x-0---0-x-1---1-x---1-1-x---3---x-3-x-3-x-3---3-x-3---3-x----------|
 G|---0---0-x-0---0-x-0---0-x---0-0-x---2---x-2-x-2-x-0---0-x-2---2-x----------|
 D|---------x-------x-------x-------x-0-0---x-0-x-0-x-------x-------x----------|
 A|---------x-2-----x-0-----x-0-0-0-x-------x---x---x-------x-------x----------|
 E|---0-----x-------x-------x-------x-------x---x---x-3-----x-2-----x----------|


      Em              Am7             D7              G7      

 e|-------0-x-----0-x-----0-x---3---x---2---x-0-x-2-x-----1-x-----1-x----------|
 B|---0---0-x-0---0-x-1---1-x---1-1-x---1---x-1-x-1-x-0---0-x-0---0-x----------|
 G|---0---0-x-0---0-x-0---0-x---0-0-x---2---x-2-x-2-x-0---0-x-0---0-x----------|
 D|---------x-------x-------x-------x-0-0---x-0-x---x-------x-------x----------|
 A|---------x-2-----x-0-----x-0-0-0-x-------x---x---x-------x-2-----x----------|
 E|---0-----x-------x-------x-------x-------x---x---x-3-----x-------x----------|


      C               Cm              G

 e|-------0-x-------x-----3-x---3-3-x-----3-x-3-3-3-3-3-x-3-x-3-x-3-x----------|
 B|---1---1-x---3-1-x-4---4-x---4-4-x-----3-x-3-3-3-3-3-x-3-x-3-x-3-x----------|
 G|---0---0-x---0-0-x-5---5-x---5-5-x-----0-x-0-0-0-0-0-x-0-x-0-x-0-x----------|
 D|---------x-------x-------x-------x-------x-----------x---x-2-x---x----------|
 A|---3-----x-3-3-3-x-3-----x-3-3-3-x-3-----x-----------x-2-x---x-2-x----------|
 E|---------x-------x-------x-------x-------x-3-3-3-2-0-x---x---x---x----------|


      Am7                 D7

 e|-----------0-----------------2----------------------------------------------|
 B|---------1-----------------1------------------------------------------------|
 G|-------0-----------------2--------------------------------------------------|
 D|-----2-----------------0----------------------------------------------------|
 A|---0------------------------------------------------------------------------|
 E|----------------------------------------------------------------------------|



 [Chorus 1]


      G                               D/F#            Em      Bm7

 e|-------3-x-----3-x-----3-x-----3-x------0------0-x-0-------2---2-x----------|
 B|---3---3-x-3---3-x-3---3-x-3---3-x---3--3---3--3-x-0---0---3---3-x----------|
 G|---0---0-x-0---0-x-0---0-x-0---0-x---2--2---2--2-x-0---0---2---2-x----------|
 D|---------x-------x-------x-------x---------------x-----2-----4---x----------|
 A|---------x-2-----x-------x-2-----x---------------x---------2-----x----------|
 E|---3-----x-------x-3-----x-------x-0-2------2----x-0-------------x----------|


      C                               Am7             D
 
 e|-------0-x---0---x-----0-x-0-x---x-----0-x---0---x---2---x-2---0-x----------|
 B|---1---1-x---1-1-x-1---1-x-1-x-1-x-1---1-x---1-1-x---3---x-3---3-x----------|
 G|---0---0-x---0-0-x-0---0-x-0-x-0-x-0---0-x---0-0-x---2---x-2---2-x----------|
 D|---------x-------x-------x---x---x-------x-------x-0-0---x-0---0-x----------|
 A|---3-----x-3-3-3-x-3-----x-3-x-2-x-0-----x-0-0-0-x-------x-------x----------|
 E|---------x-------x-------x---x---x-------x-------x-------x-------x----------|


      G                               D/F#            Em      Bm7

 e|-------3-x-----3-x-----3-x-----3-x------0------0-x-0-------2---2-x----------|
 B|---3---3-x-3---3-x-3---3-x-3---3-x---3--3---3--3-x-0---0---3---3-x----------|
 G|---0---0-x-0---0-x-0---0-x-0---0-x---2--2---2--2-x-0---0---2---2-x----------|
 D|---------x-------x-------x-------x---------------x-----2-----4---x----------|
 A|---------x-2-----x-------x-2-----x---------------x---------2-----x----------|
 E|---3-----x-------x-3-----x-------x-0-2------2----x-0-------------x----------|


      C                               Am7               D7
 
 e|-------0-x---0---x-----0-x---x---x-----0-x---0---x---------2----------------|
 B|---1---1-x---1-1-x-1---1-x-1-x-1-x-1---1-x---1-1-x-------1------------------|
 G|---0---0-x---0-0-x-0---0-x-0-x-0-x-0---0-x---0-0-x-----2--------------------|
 D|---------x-------x-------x---x---x-------x-------x---0----------------------|
 A|---3-----x-3-3-3-x-3-----x-3-x-2-x-0-----x-0-0-0-x--------------------------|
 E|---------x-------x-------x---x---x-------x-------x--------------------------|



 [Bridge]


      G               Cadd9           Am7     Am/G    C       D   Dsus4

 e|-------3-x-----3-x-----3-x---3---x-----0-x---3---x-----0-x-2---3-x----------|
 B|-------3-x-3---3-x-3---3-x---3-3-x-1---1-x---1-1-x-1---1-x-3---3-x----------|
 G|-------0-x-0---0-x-0---0-x---0-0-x-0---0-x---0-0-x-0---0-x-2-2-2-x----------|
 D|---------x-------x-------x-------x-------x-------x-------x-0-----x----------|
 A|---------x-2-----x-3-----x-3-3-3-x-0-----x-0-0-0-x-3-----x-------x----------|
 E|---3-----x-------x-------x-------x-------x-------x-------x-------x----------|


      G               Cadd9             Am7             D7

 e|-------3-x-----3-x-----3-x---3---x-----------0-------------2----------------|
 B|---3---3-x-3---3-x-3---3-x---3-3-x---------1-------------1-----------Clap---|
 G|---0---0-x-0---0-x-0---0-x---0-0-x-------0-------------2--------------------|
 D|---------x-------x-------x-------x-----2-------------0---------------Clap---|
 A|---------x-2-----x-3-----x-3-3-3-x---0--------------------------------------|
 E|---3-----x-------x-------x-------x------------------------------------------|



 [Verse 2]


      G               Cadd9           Am7             C       D   Dsus4
  
 e|-------3-x-----3-x-----3-x---3---x-----0-x---3---x-----0-x-2---3-x----------|
 B|-------3-x-3---3-x-3---3-x---3-3-x-1---1-x---1-1-x-1---1-x-3---3-x----------|
 G|-------0-x-0---0-x-0---0-x---0-0-x-0---0-x---0-0-x-0---0-x-2-2-2-x----------|
 D|---------x-------x-------x-------x-------x-------x-------x-0-----x----------|
 A|---------x-2-----x-3-----x-3-3-3-x-0-----x-0-0-0-x-3-----x-------x----------|
 E|---3-----x-------x-------x-------x-------x-------x-------x-------x----------|


      G               Cadd9           Am7             C       D   Dsus4

 e|-------3-x-----3-x-----3-x---3---x-----0-x---3---x-----0-x-2---3-x----------|
 B|---3---3-x-3---3-x-3---3-x---3-3-x-1---1-x---1-1-x-1---1-x-3---3-x----------|
 G|---0---0-x-0---0-x-0---0-x---0-0-x-0---0-x---0-0-x-0---0-x-2-2-2-x----------|
 D|---------x-------x-------x-------x-------x-------x-------x-0-----x----------|
 A|---------x-2-----x-3-----x-3-3-3-x-0-----x-0-0-0-x-3-----x-------x----------|
 E|---3-----x-------x-------x-------x-------x-------x-------x-------x----------|


      Em              Am7             D               G       D/F#

 e|-------0-x-----0-x-----0-x---3---x---2---x-2-x-0-x-----3-x-----0-x----------|
 B|---0---0-x-0---0-x-1---1-x---1-1-x---3---x-3-x-3-x-3---3-x-3---3-x----------|
 G|---0---0-x-0---0-x-0---0-x---0-0-x---2---x-2-x-2-x-0---0-x-2---2-x----------|
 D|---------x-------x-------x-------x-0-0---x-0-x-0-x-------x-------x----------|
 A|---------x-2-----x-0-----x-0-0-0-x-------x---x---x-------x-------x----------|
 E|---0-----x-------x-------x-------x-------x---x---x-3-----x-2-----x----------|


      Em              Am7             D7              G7      

 e|-------0-x-----0-x-----0-x---3---x---2---x-0-x-2-x-----1-x-----1-x----------|
 B|---0---0-x-0---0-x-1---1-x---1-1-x---1---x-1-x-1-x-0---0-x-0---0-x----------|
 G|---0---0-x-0---0-x-0---0-x---0-0-x---2---x-2-x-2-x-0---0-x-0---0-x----------|
 D|---------x-------x-------x-------x-0-0---x-0-x---x-------x-------x----------|
 A|---------x-2-----x-0-----x-0-0-0-x-------x---x---x-------x-2-----x----------|
 E|---0-----x-------x-------x-------x-------x---x---x-3-----x-------x----------|


      C               Cm              G

 e|-------0-x-------x-----3-x---3-3-x-----3-x-3-3-3-3-3-x-3-x-3-x-3-x----------|
 B|---1---1-x---3-1-x-4---4-x---4-4-x-----3-x-3-3-3-3-3-x-3-x-3-x-3-x----------|
 G|---0---0-x---0-0-x-5---5-x---5-5-x-----0-x-0-0-0-0-0-x-0-x-0-x-0-x----------|
 D|---------x-------x-------x-------x-------x-----------x---x-2-x---x----------|
 A|---3-----x-3-3-3-x-3-----x-3-3-3-x-3-----x-----------x-2-x---x-2-x----------|
 E|---------x-------x-------x-------x-------x-3-3-3-2-0-x---x---x---x----------|


      Am7                 D7

 e|-----------0-----------------2----------------------------------------------|
 B|---------1-----------------1------------------------------------------------|
 G|-------0-----------------2--------------------------------------------------|
 D|-----2-----------------0----------------------------------------------------|
 A|---0------------------------------------------------------------------------|
 E|----------------------------------------------------------------------------|



 [Chorus 2]


      G                               D/F#            Em      Bm7

 e|-------3-x-----3-x-----3-x-----3-x------0------0-x-0-------2---2-x----------|
 B|---3---3-x-3---3-x-3---3-x-3---3-x---3--3---3--3-x-0---0---3---3-x----------|
 G|---0---0-x-0---0-x-0---0-x-0---0-x---2--2---2--2-x-0---0---2---2-x----------|
 D|---------x-------x-------x-------x---------------x-----2-----4---x----------|
 A|---------x-2-----x-------x-2-----x---------------x---------2-----x----------|
 E|---3-----x-------x-3-----x-------x-0-2------2----x-0-------------x----------|


      C                               Am7             D
 
 e|-------0-x---0---x-----0-x-0-x---x-----0-x---0---x---2---x-2---0-x----------|
 B|---1---1-x---1-1-x-1---1-x-1-x-1-x-1---1-x---1-1-x---3---x-3---3-x----------|
 G|---0---0-x---0-0-x-0---0-x-0-x-0-x-0---0-x---0-0-x---2---x-2---2-x----------|
 D|---------x-------x-------x---x---x-------x-------x-0-0---x-0---0-x----------|
 A|---3-----x-3-3-3-x-3-----x-3-x-2-x-0-----x-0-0-0-x-------x-------x----------|
 E|---------x-------x-------x---x---x-------x-------x-------x-------x----------|


      G                               D/F#            Em      Bm7

 e|-------3-x-----3-x-----3-x-----3-x------0------0-x-0-------2---2-x----------|
 B|---3---3-x-3---3-x-3---3-x-3---3-x---3--3---3--3-x-0---0---3---3-x----------|
 G|---0---0-x-0---0-x-0---0-x-0---0-x---2--2---2--2-x-0---0---2---2-x----------|
 D|---------x-------x-------x-------x---------------x-----2-----4---x----------|
 A|---------x-2-----x-------x-2-----x---------------x---------2-----x----------|
 E|---3-----x-------x-3-----x-------x-0-2------2----x-0-------------x----------|


      C                               Am7               D7
 
 e|-------0-x---0---x-----0-x---x---x-----0-x---0---x---------2----------------|
 B|---1---1-x---1-1-x-1---1-x-1-x-1-x-1---1-x---1-1-x-------1------------------|
 G|---0---0-x---0-0-x-0---0-x-0-x-0-x-0---0-x---0-0-x-----2--------------------|
 D|---------x-------x-------x---x---x-------x-------x---0----------------------|
 A|---3-----x-3-3-3-x-3-----x-3-x-2-x-0-----x-0-0-0-x--------------------------|
 E|---------x-------x-------x---x---x-------x-------x--------------------------|


 [Outro]


          G               G

 e|-----------------3---------------3------------------------------------------|
 B|---------------3---------------3--------------------------------------------|
 G|-------------0---------------0----------------------------------------------|
 D|-----------0---------------0------------------------------------------------|
 A|---------2---------------2--------------------------------------------------|
 E|-------3---------------3----------------------------------------------------|





================================================================================
 
Explanation:

 ---x---
 ---x---
 ---x---  = Clap the strings with your hand! Watch the original video!
 ---x---
 ---x---
 ---x---





Comments


Popular Extreme tabs & chords
Get The Funk Out 1 Bass Tabs
Its A Monster Bass Tabs
More Than Words 5 Chords
Am I Ever Gonna Change Tabs
Cupid's Dead 1 Tabs
Flight Of The Wounded Bumble Bee 1 Tabs
Leave Me Alone 1 Tabs
Love Of My Life Tabs
More Than Words 5 Tabs
Warheads Tabs


Song lyrics



↑ Back to top | Tablatures and chords are parodies/interpretations of the original songs. You may use it for private study, scholarship, research or language learning purposes only
© 2014 AZChords.com Contact us | Privacy policy | DMCA | Add/correct tabs | Request tabs | Top 50 tabs