» » »

I Get Lost Ukulele Chords (ver.1)

Artists:  A B C D E F G H I J K L M N O P Q R S T U V W X Y Z # 

I Get Lost Ukulele Chords (ver.1)

Eric Clapton
Rating:
0/5 (0 votes)

Tabs too difficult? Try these video lessons and learn fast.
                I get lost
Eric Clapton

Intro riff ‘A' (2x)-

             F#m                          E6
Bm7
|--------------------------------------------------------------2---------|
|------------2------------------------2---------------------------3------|
|----------------2-----------------------1---------------------------2---|
|--------4----------4------------2---------2-------------4-------------2-|
|----4------------------------2-----------------------2------------------|
|------------------------------------------------------------------------|

      Esus4          (E)     Esus4          E
|----------------------------------------------------|
|--------0-----------------0-------------------------|
|--------2----------(1)----2--------------1----------|
|--------2----------(2)----2--------------2----------|
|-------------------(2)-------------------2----------|
|----------------------------------------------------|


Intro riff ‘B' (1x)-
|------------------------------------------------------------------------|
|---------7--5/\/\-----7-------5----3/\/\/\/\/\------/3–2–0-----2--------|
|----/6-------------------6/\/\--------------------------------2-----2---|
|----------------------------------------------------------------------4-|
|------------------------------------------------------------------------|
|------------------------------------------------------------------------|

|------------------------------------------------------------------------|
|----------7—5----7/9/\/\--10—7/\/\/\/\-----------/3—2–0----2--5--2------|\/\/
|------/6--------------------------------------------------------2-------|
|------------------------------------------------------------------------|
|------------------------------------------------------------------------|
|------------------------------------------------------------------------|


Verse chords
	F#m                  E6          Bm7             E
	F#m                  E6          Bm7             
  (E)
Esus4    E

Chorus chords
	Am            F             D                G      
       E
Am
	Am            F             D                G      
       E

repeat intro riff B

Bridge chords
	F                E*             E
	A               Asus4        F#sus4            F#
	F               E*             E
	A               Asus4        A             F

Chord formations

A            0 0 2 2 2 0			Asus4       0 0 2 2 3 0
Am           0 0 2 2 1 0			Bm7         x 2 4 2 3 2
D            x 0 0 2 3 2			E           0 2 2 1 0 0
E*           0 2 2 2 0 0			E6          0 2 2 1 2 0
Esus4        0 0 2 2 0 0			F           0 3 3 2 1 1
F#           2 4 4 3 2 2   			F#sus4      2 2 4 4 2 2
F#m          2 4 4 2 2 2			G           3 2 0 0 0 3
            
Tabs too difficult? Try these video lessons and learn fast.




comments powered by Disqus
↑ Back to top | Tablatures and chords are parodies/interpretations of the original songs. You may use it for private study, scholarship, research or language learning purposes only