» » »

Interface Tabs (ver.1)

Artists:  A B C D E F G H I J K L M N O P Q R S T U V W X Y Z # 

Interface Tabs (ver.1)

Extreme
Rating:
0/5 (0 votes)

Hard to play? Try these video lessons and learn fast.
                ok so this song has quite a weird tuning its : E tuned up to   F
                                               A tuned down to G
                                               D tuned down to C
                                               G tuned down to F
                                               B tuned down to A
                                               E tuned down to D

ok this is my first submission, please message me if you have any fixes or anything or 

the beginning chords are:

|--2---------------0--|   I'm sure you can work out the rythm.
|--3---------------1--|
|--0---------------0--|
|--2---------------2--|
|--3---------------3--|
|---------------------|

Chorus

|--------5----5/7\5---5--------2--2-2--2---2-|
|--------3----3-----3-3--------3--3-3--3---3-|
|-----0--0--0---------0--------4--4-4--4---4-|
|----------------------------4-4--4-4--4---4-|
|--------------------------2---2--2-2--2-2-2-|
|--0-----------------------------------------|

                       | - - - - - - - - -|
-2--2--2-2-x-0-0-0--x-x----1--------------|
-3--3--3-3-x-1-1-1--x-x----3---0h1-1-1----|
-0--0--0-0-x-0-0-0--x-x----3-3-2-2-2-2--0-| repeat
-2--2--2-2-x-2-2-2--x-x--3-3-3-2-2-2-2-2--|
-3--3--3-3-x-3-3-3--x-x-1--1-1-0-0-0-0----|
--------------------x-x-------------------|
                       | - - - - - - - - -|
lead guitar chorus: from the 2nd chorus, only difference i can make out is
the bit highlighted, and that goes

| - - - - - - - - -|
-------------------|
-----3-----------1-|
-------3-------0---|
---3---------2-----|
-1---------0-------|
-------------------|
                                                                            The 
is notes are natural harmonics

|--------------------------------------------------------------------------|
|----------------------------------------------------12--------------------|
|-------------------------12-----------------------------------------------|
|-------12-------------12----------12-------------12----------12-----------|
|----12----12-------12----------12----12-------12----------12----12--------|
|-12----------12-12----------12----------12-12----------12----------12-----|

                               | - |
-----------------------------------|
--------------------------------12-|
----------7------------------------|
-------12---------12---------12----|
----12---------12----5----12-------|
-12---------12---------12----------|

| - |
----|              play this the second time round
----|
-12-|
----|
----|
----|

Note ^ all natural harminics ^ let ring throughout

Verse chords, again, just listen to the song, and work out the rythm

|-2--- -0-- -2-- -5-- -2--|  |- fill ------------2-
|-3--- -1-- -3-- -7-- -3--|  |-------------------3-|
|-4--- -0-- -2-- -6-- -2--|  |-------------------4-| then repeat verse
|-4--- -2-- -0-- -4-- -0--|  |-------------------4-|
|-2--- -3-- -0-- ---- -0--|  |-------------------2-|
|----- ---- ---- ---- ----|  |-----0-0-0-7-5-4-5---|

I havn't had a chance to work out the solo yet but will do, as soon as possible,
oh and by the way only the dramagods

version has the lead chorus part in it.

well it isn't perfect, but its how I play it, enjoy!
            
Hard to play? Try these video lessons and learn fast. | Correct




comments powered by Disqus
↑ Back to top | Tablatures and chords are parodies/interpretations of the original songs. You may use it for private study, scholarship, research or language learning purposes only