>
 >
Undeceived

Undeceived Guitar Tabs

Extol - Undeceived chords, tabs, tablatures, lyrics

Guitar lessons | Add/correct | Request | Top 50 tabs Artists:  A B C D E F G H I J K L M N O P Q R S T U V W X Y Z 0-9

Undeceived Guitar Tabs – Extol

CD, Sheet music, Poster

Do you like Undeceived? Share with your friends now
Tabs
--------------------------------------------------------------------------
                       "UNDECEIVED" - Extol
--------------------------------------------------------------------------

Tuning: Standard B
Note: Tune your 6th string down to B, then tune the rest of the strings 
the normal way. Extol does not tune to dropped B as noted on other tabs.        

I was just way too lazy to tab all the palm mutes, hammers, pulls and 
slides. The parts were challenging enough to figure out. If you can get 
through the song, you are good enough to know how to stylize the notes and 
chords to make it sound like the original. Crack your knuckles and get to 
work...Good Luck!

Orchestral Intro

Riff A - Both Guitars
e|------------------------------------------------------------------------|
B|------------------------------------------------------------------------|
G|------------------------------------------------------------------------|
D|------------------------------------------------------------------------|
A|-----------------7-7-7-7------------------------------------------------|
E|-0-0-0-0-0-0-0-0---------5-5-5-5-7-7-7-7-7-7-7-7-0-0-0-0-0-0-0-0-5-5-5-5|

e|------------------------------------------------------------------------|
B|------------------------------------------------------------------------|
G|------------------------------------------------------------------------|
D|-------------------------9-9-9-9-9-9-9-9-7-7-7-7-7-7-7-7----------------|
A|-----------------7-7-7-7------------------------------------------------|
E|-5-5-5-5-8-8-8-8-----------------------------------------0-0-0-0-0-0-0-0|

e|------------------------------------------------------------------------|
B|------------------------------------------------------------------------|
G|------------------------------------------------------------------------|
D|------------------------------------------------------------------------|
A|-7-7-7-7-----------------------------------------5-5-5-5-5-5-5-5--------|
E|---------5-5-5-5-7-7-7-7-7-7-7-7-0-0-0-0-0-0-0-0-----------------2-2-2-2|

e|-----------------------------------------|
B|-----------------------------------------|
G|-----------------------------------------|
D|-----------------------------------------|
A|---------6-6-6-6-6-6-6-6-----------------|
E|-5-5-5-5-----------------2-2-2-2-5-5-5-5-|

Riff B - Both w/ Fill B
e|------------------------------------------------------------------------|
B|------------------------------------------------------------------------|
G|----------------------------------------------5--------5-5--------------|
D|-5-----5-5-2------2-2-5-------5-5-2-----------5--------5-5-3-------3-3-5|
A|-5-----5-5-2------2-2-5-------5-5-2-------2-2-3--------3-3-3-------3-3-5|
E|-3-----3-3-0------0-0-3-------3-3-0-------0-0--------------1-------1-1-3|

e|-----------------------------------|
B|-----------------------------------|
G|-----------------------------------|
D|-------5-5-2------2-2-3-------3-3--|
A|-------5-5-2------2-2-3-------3-3--|
E|-------3-3-0------0-0-1-------1-1--|

Fill B
e|------------------------------------------------------------------------|
B|------------------------------------------------------------------------|
G|-----7-7-7-7-----7-7-7-7-----7-7-----7-7-7-7-----7-7-7-7---7-----11-11--|
D|-5-5---------5-5---------5-5-----5-5---------5-5---------5---9-9--------|
A|------------------------------------------------------------------------|
E|------------------------------------------------------------------------|

e|------------------------------------------------------------------------|
B|------------------------------------------------------------------------|
G|-11-11-----11-11-11-11-----11-11-----11-11-11-11-----11-11-11-11-----11-|
D|-------9-9-------------9-9-------9-9-------------9-9-------------9-9----|
A|------------------------------------------------------------------------|
E|------------------------------------------------------------------------|
                                   *bend
e|------------------------------------------------------------------------|
B|---------------------------------8--------------------------------------|
G|-----7-7-7-7-----7-7-7-7-----7-7-----------7-7-----7-----11-11-11-11----|
D|-5-5---------5-5---------5-5-------5-5-5-5-----5-5---9-9-------------9-9|
A|------------------------------------------------------------------------|
E|------------------------------------------------------------------------|
                         *bend
e|------------------------------------------------------------------------|
B|-----------------------12-----------------------------------------------|
G|-11-11-11-11-----11-11------------11-11-----11-------12-12-------11-----|
D|-------------9-9----------9-9-9-9-------9-9----10-10-------10-10--------|
A|------------------------------------------------------------------------|
E|------------------------------------------------------------------------|

e|------------------------------------------------------------------------|
B|------------------------------------------------------------------------|
G|-------12-12----11-------12-12-------11-----9-9-----9-----9-9-----9---9-|
D|-10-10-------10----10-10-------10-10----7-7-----7-7---7-7-----7-7---7---|
A|------------------------------------------------------------------------|
E|------------------------------------------------------------------------|

e|------------------------------------------------------------------------|
B|---------------------------------8--------------------------------------|
G|-----7-7-7-7-----7-7-7-7-----7-------------7-----7-----11-11-11-11------|
D|-5-5---------5-5---------5-5---5---5-5-5-5---5-5---9-9-------------9-9--|
A|------------------------------------------------------------------------|
E|------------------------------------------------------------------------|

e|------------------------------------------------------------------------|
B|----------------------12------------------------------------------------|
G|-11-11-11-11-----11--------------11-----11-------12-12-12-12-------12-12|
D|-------------9-9----9----9-9-9-9----9-9----10-10-------------10-10------|
A|------------------------------------------------------------------------|
E|------------------------------------------------------------------------|

e|-----------------------------------------------------------------|
B|-----------------------------------------------------------------|
G|-12-12-------12-12-------12-12-12-12----12-12-12-12-------12-12--|
D|-------10-10-------10-10-------------10-------------10-10--------|
A|-----------------------------------------------------------------|
E|-----------------------------------------------------------------|

Riff C - Both w/Fill C
e|------------------------------------------------------------------------|
B|------------------------------------------------------------------------|
G|------------------------------------------------------------------------|
D|------------------------------------------------------------------------|
A|------------------------------------------------------------------------|
E|-7--7-7-7-7--7--7-7--5--5-5-5-5--5--5-5--3--3-3-3-3--3--3-3--8--8-8-8-8-|

e|----------|
B|----------|
G|----------|
D|----------|
A|----------|
E|-8--8-8---|

Fill C
e|------------------------------------------------------------------------|
B|------------------------------------------------------------------------|
G|-8-8-9-9-8-8-9---8-8-9-9-8-8-9---9-9-11-11-12-12-11---9-9-11-11-12-12-11|
D|------------------------------------------------------------------------|
A|------------------------------------------------------------------------|
E|------------------------------------------------------------------------|

Riff D - Both w/Fill D
e|------------------------------------------------------------------------|
B|------------------------------------------------------------------------|
G|------------------------------------------------------------------------|
D|-2----------------------------------------------------------------------|
A|-2----------------------------------------------------------------------|
E|-0----------------------------------------------------------------------|

Fill D - 4x
e|-------------------------|
B|-------3-----5-----3-----|
G|-----2---2-----2-----2---|
D|---2-------2-----2-----2-|
A|-------------------------|
E|-0-----------------------|

Riff E - Left - w/Fill D
e|------------------------------------------------------------------------|
B|------------------------------------------------------------------------|
G|------------------------------------------------------------------------|
D|-2------------------2---2------------------2--4-4-4-4-4-4-2-2-2-2-2-2---|
A|-2------------------2---2------------------2--3-3-3-3-3-3-3-3-3-3-3-3---|
E|-0--0-0-0-0--0-0-0--0---0--0-0-0-0--0-0-0--0----------------------------|

e|---------------------------|
B|---------------------------|
G|---------------------------|
D|-------------3-3-3-2-2-2---|
A|-5-5-5-5-5-5-0-0-0-0-0-0---|
E|-3-3-3-3-3-3---------------|

Riff E - Right - w/Fill D -2x
e|------------------------------------------------------------------------|
B|------------------------------------------------------------------------|
G|----------------------------------------------2-2-2-4-4-4-5-5-5-0-0-0---|
D|-2------------------2---2------------------2--2-2-2-2-2-2-2-2-2-2-2-2---|
A|-2------------------2---2------------------2--3-3-3-3-3-3-3-3-3-3-3-3---|
E|-0--0-0-0-0--0-0-0--0---0--0-0-0-0--0-0-0--0----------------------------|

e|---------------------------|
B|---------------------------|
G|-4-4-4-4-4-4---------------|
D|-5-5-5-5-5-5-7-7-7-5-5-5---|
A|-------------0-0-0-0-0-0---|
E|---------------------------|

Riff F - Left
e|------------------------------------------------------------------------|
B|------------------------------------------------------------------------|
G|------------------------------------------------------------------------|
D|---------------------------6-5----------------------------4---5-7-------|
A|-----------4-4-4-------4-5----------------4-4-4-------4-5---6-----------|
E|-6-6-6--3---------6-3-----------6-6-6--3---------6-3--------------------|

e|------------------------------------------------------------------------|
B|------------------------------------------------------------------------|
G|------------------------------------------------------------------------|
D|---------------------------6-5----------------------------4---5-7-------|
A|-----------4-4-4-------4-5----------------4-4-4-------4-5---6-----------|
E|-6-6-6--3---------6-3-----------6-6-6--3---------6-3--------------------|

e|---------------|
B|---------------|
G|---------------|
D|-----5---6-8---|
A|-5-6---7-------|
E|---------------|

Riff F - Right
e|------------------------------------------------------------------------|
B|------------------------------------------------------------------------|
G|------------------------------------------------------------------------|
D|---------------------------6-5----------------------------4---5-7-------|
A|-----------4-4-4-------4-5----------------4-4-4-------4-5---6-----------|
E|-6-6-6--3---------6-3-----------6-6-6--3---------6-3--------------------|

e|------------------------------------------------------------------------|
B|------------------------------------------------------------------------|
G|------------------------------------------------------------------------|
D|---------------------------6-5----------------------------5---6-8-------|
A|-----------4-4-4-------4-5----------------4-4-4-------5-6---7-----------|
E|-6-6-6--3---------6-3-----------6-6-6--3---------6-3--------------------|

e|---------------|
B|---------------|
G|---------------|
D|-----6---7-9---|
A|-6-7---8-------|
E|---------------|

Repeat Riff E w/Fill D (stops short, little break)

Riff G - Left
e|------------------------------------------------------------------------|
B|------------------------------------------------------------------------|
G|-------------------------------------------------------------------5-5-5|
D|-4-4-4-4-4-4-5-5-5-5-5-5-3-3-3-3-3-3-3-3-3-6-6-6-6-6-6-5-5-5-5-5-5-5-5-5|
A|-2-2-2-2-2-2-2-2-2-2-2-2-0-0-0-0-0-0-0-0-0-6-6-6-6-6-6-5-5-5-5-5-5-3-3-3|
E|-------------------------------------------4-4-4-4-4-4-3-3-3-3-3-3------|

e|--------------------|
B|--------------------|
G|-5-5-5--------------|
D|-5-5-5-3-3-3-3-3-3--|
A|-3-3-3-3-3-3-3-3-3--|
E|-------1-1-1-1-1-1--|

Riff G - Right
e|-10-10-10-10-10-10------------------------------------------------------|
B|-12-12-12-12-12-12-14-14-14-14-14-14-13-13-13-13-13-13-12-12-12-13-13-13|
G|-11-11-11-11-11-11-12-12-12-12-12-12-10-10-10-10-10-10-10-10-10-13-13-13|
D|----------------------------------------------------------------13-13-13|
A|------------------------------------------------------------------------|
E|------------------------------------------------------------------------|

e|------------------------------------------------------------------|
B|-13-13-13-12-12-12-12-12-12-12-12-12-12-12-12-10-10-10-10-10-10---|
G|-13-13-13-12-12-12-12-12-12-12-12-12-12-12-12-10-10-10-10-10-10---|
D|-13-13-13-12-12-12-12-12-12-12-12-12-12-12-12-10-10-10-10-10-10---|
A|------------------------------------------------------------------|
E|------------------------------------------------------------------|

Repeat Riff B w/Fill B Variations
e|------------------------------------------------------------------------|
B|------------------------------------------------------------------------|
G|-----7-7-7-7-----7-7-7-7-----7-7-----7-7-7-7-----7-7-7-7---7-----11-11--|
D|-5-5---------5-5---------5-5-----5-5---------5-5---------5---9-9--------|
A|------------------------------------------------------------------------|
E|------------------------------------------------------------------------|

e|------------------------------------------------------------------------|
B|------------------------------------------------------------------------|
G|-11-11-----11-11-11-11-----11-11-----11-11-11-11-----11-11-11-11-----11-|
D|-------9-9-------------9-9-------9-9-------------9-9-------------9-9----|
A|------------------------------------------------------------------------|
E|------------------------------------------------------------------------|
                                   *bend
e|------------------------------------------------------------------------|
B|---------------------------------8--------------------------------------|
G|-----7-7-7-7-----7-7-7-7-----7-7-----------7-7-----7-----11-11-11-11----|
D|-5-5---------5-5---------5-5-------5-5-5-5-----5-5---9-9-------------9-9|
A|------------------------------------------------------------------------|
E|------------------------------------------------------------------------|
                         *bend
e|------------------------------------------------------------------------|
B|-----------------------12-----------------------------------------------|
G|-11-11-11-11-----11-11------------11-11-----11-------12-12-------11-----|
D|-------------9-9----------9-9-9-9-------9-9----10-10-------10-10--------|
A|------------------------------------------------------------------------|
E|------------------------------------------------------------------------|

e|------------------------------------------------------------------------|
B|------------------------------------------------------------------------|
G|-------12-12----11-------12-12-------11-----9----5----10----12----7-----|
D|-10-10-------10----10-10-------10-10------------------------------------|
A|------------------------------------------------------------------------|
E|------------------------------------------------------------------------|

e|------------------------------------------------------------------------|
B|---------------------------------8---------8----------------------------|
G|-----7-7-7-7-----7-7-7-7-----7---------7---------7-----11-11-11-11------|
D|-5-5---------5-5---------5-5---5---5-5---5---5-5---9-9-------------9-9--|
A|------------------------------------------------------------------------|
E|------------------------------------------------------------------------|

e|------------------------------------------------------------------------|
B|----------------------12----------12------------------------------------|
G|-11-11-11-11-----11---------11----------11-------12-12-12-12-------12-12|
D|-------------9-9----9----9-9---9----9-9----10-10-------------10-10------|
A|------------------------------------------------------------------------|
E|------------------------------------------------------------------------|

e|-----------------------------------------------------------------|
B|-----------------------------------------------------------------|
G|-12-12-------12-12-------12-12-12-12----12-12-12-12-------12-12--|
D|-------10-10-------10-10-------------10-------------10-10--------|
A|-----------------------------------------------------------------|
E|-----------------------------------------------------------------|

Repeat Riff C - 4x
Repeat Riff E w/Fill D - 2x
Repeat Riff G - 4x

Riff H - Left - 2x
e|------------------------------------------------------------------------|
B|------------------------------------------------------------------------|
G|------------------------------------------------------------------------|
D|------------------------------------------------------------------------|
A|-2----5-0--1----1--3--------------2----5-0--1----1--3-------------------|
E|------------------------4----2--------------------------4-----5---------|

Riff H - Right - 2x
e|------------------------------------------------------------------------|
B|------------------------------------------------------------------------|
G|------------------------------------------------------------------------|
D|-4----4-2--2----3--5----3---------4----4-2--2----3--5---3-----3---------|
A|-----------------------------4------------------------------------------|
E|------------------------------------------------------------------------|

Riff I - Both w/Wah Solo Thingy - 2x
e|------------------------------------------------------------------------|
B|------------------------------------------------------------------------|
G|------------------------------------------------------------------------|
D|-4-4--4-2--2----3--5----3---------4-4--4-2--2----3--5---3-----3---------|
A|-2-2--5-0--1----1--3---------4----2-2--5-0--1----1--3---------0---------|
E|------------------------4----2--------------------------4---------------|
           Break
e|----------------------|
B|----------------------|
G|----------------------|
D|-2-2------------------|
A|-0-0------------------|
E|----------------------|

Repeat Riff H once slowing down

End Chord
e|---------------|
B|---------------|
G|---------------|
D|-4-------------|
A|-4-------------|
E|-2-------------|


| /  slide up
| \  slide down
| h  hammer-on
| p  pull-off
| ~  vibrato
| +  harmonic
| x  Mute note
===========================================================================





Comments


Popular Extol tabs & chords
26 Miles To Marathon Tabs
Aperture Tabs
Blood Red Cover Tabs
Confession Of Inadequacy Tabs
Meadows Of Silence 1 Tabs
Of Light And Shade Tabs
Paradigms Intro Tabs
Reflections Of A Broken Soul Tabs
Shelter Tabs
Will You Be There Tabs


Song lyrics



↑ Back to top | Tablatures and chords are parodies/interpretations of the original songs. You may use it for private study, scholarship, research or language learning purposes only
© 2014 AZChords.com Contact us | Privacy policy | DMCA | Add/correct tabs | Request tabs | Top 50 tabs