» » »

Time Stands Still Tabs (ver.1)

Artists:  A B C D E F G H I J K L M N O P Q R S T U V W X Y Z # 

Time Stands Still Tabs (ver.1)

Extol
Rating:
5/5 (1 vote)

Tabs too difficult? Try these video lessons and learn fast.
                --------------------------------------------------------------------------
                     "TIME STANDS STILL" - Extol
--------------------------------------------------------------------------

Tuning: Standard B
Note: Tune your 6th string down to B, then tune the rest of the strings 
the normal way. Extol does not tune to dropped B as noted on other tabs.        
I was just way too lazy to tab all the palm mutes, hammers, pulls and 
slides. The parts were challenging enough to figure out. If you can get 
through the song, you are good enough to know how to stylize the notes and 
chords to make it sound like the original. Crack your knuckles and get to 
work...Good Luck!

Acoustic Intro
Guitar 1
e|------------------------------------------------------------------------|
B|------------------------------------------------------------------------|
G|------------------------------------------------------------------------|
D|-7---5-4----7-------4-5--5---7---9-----7---5-4----7------------9--10--12|
A|-7-------7--5---5-7------3---5---7-----7-------7--5------------7--8---10|
E|-5-------------------------------------5-------------7-8-10-8-----------|

e|-----------|
B|-----------|
G|-----------|
D|-9-7-------|
A|-----10-9--|
E|-----------|

Guitar 2
e|------------------------------------------------------------------------|
B|------------------------------------------------------------------------|
G|-5---4----------------4----4-5-7-5-4-------5---4-----------------4------|
D|-------7-5-4----4-5-7----------------7-6---------7-5-4---4-5-7-5---7-5-4|
A|------------------------------------------------------------------------|
E|------------------------------------------------------------------------|

e|-----------------------|
B|-----------------------|
G|-5-4-7-5----7-5-4------|
D|-------------------7---|
A|-----------------------|
E|-----------------------|

Riff A - Left Guitar - 3x
e|------------------------------------------------------------------------|
B|------------------------------------------------------------------------|
G|------------------------------------------------------------------------|
D|------------------------------------------------------------------------|
A|------------------------------------------------------------------------|
E|-2-2-2-2-2-2-0-0-0-0-0-0-3-3-3-3-3-3-7-7-7-7-7-7-8-8-8-8-8-8-8-8-8-8----|

e|------------------------------------------------------------------------|
B|------------------------------------------------------------------------|
G|------------------------------------------------------------------------|
D|------------------------------------------------------------------------|
A|-7-7-7-7-7-7-0-0-0-0-0-0-8-8-8-8-8-8-----------------7-7-7-7-7-7-3-3-3--|
E|-------------------------------------6-6-6-6-6-6-0----------------------|

e|------------------------------------------------------------------------|
B|------------------------------------------------------------------------|
G|------------------------------------------------------------------------|
D|------------------------------------------------------------------------|
A|-3-3-3-------------------------------------7-7-7-7-7-7-3-3-3-3-3-3------|
E|-------2-2-2-2-2-2-1-1-1-1-1-1-1-1-1-1-0---------------------------2-2-2|

e|----------------------------|
B|----------------------------|
G|----------------------------|
D|----------------------------|
A|----------------------------|
E|-2-2-2-1-1-1-1-1-1-1-1-1-1--|

Riff A - Right Guitar - 3x
e|------------------------------------------------------------------------|
B|------------------------------------------------------------------------|
G|------------------------------------------------------------------------|
D|------------------------------------------------------------------------|
A|------------------------------------------------------------------------|
E|-2-2-2-2-2-2-0-0-0-0-0-0-3-3-3-3-3-3-7-7-7-7-7-7-8-8-8-8-8-8-8-8-8-8----|

e|------------------------------------------------------------------------|
B|------------------------------------------------------------------------|
G|-6-6-6-6-6-6-------------7-7-7-7-7-7------------------------------------|
D|-----------------------------------------------------9-9-9-9-9-9-8-8-8--|
A|-------------0-0-0-0-0-0------------------------------------------------|
E|-------------------------------------6-6-6-6-6-6-0----------------------|

e|------------------------------------------------------------------------|
B|------------------------------------------------------------------------|
G|------------------------------------------------------------------------|
D|-8-8-8-8-8-8-8-8-8-7-7-7-7-7-7-7-7-7-7-----9-9-9-9-9-9-8-8-8-8-8-8-8-8-8|
A|------------------------------------------------------------------------|
E|---------------------------------------0--------------------------------|

e|--------------------|
B|--------------------|
G|--------------------|
D|-8-8-8-7-7-7-7-7-7--|
A|--------------------|
E|--------------------|

Riff B - Both - 4x
e|-------0---------0---------0-------0---|
B|----4---------4------------------------|
G|------------------------0-------0------|
D|-2--------0----------1--------1--------|
A|---------------------------------------|
E|---------------------------------------|

Riff C - Both - 3x
e|------------------------------------|
B|------------------------------------|
G|------------------------------------|
D|------------------------------------|
A|-3---2---------3---2----------------|
E|---4----0-0-0----4----0-0-0--0-0-0--|

once
e|------------------------------------|
B|------------------------------------|
G|------------------------------------|
D|------------------------------------|
A|-3---2---------3---2----------------|
E|---4----0-0-0----4------------------|

Riff D1 - Both - once
e|-----------------------------------|
B|-----------------------------------|
G|-----------------------------------|
D|--------------2--------------------|
A|-3---2----------2-3----------------|
E|---4----0-0-0--------0-0-0--0-0-0--|

Riff D2 - Both - 2x
e|------------------------------------------------------------------------|
B|------------------------------------------------------------------------|
G|------------------------------------------------------------------------|
D|-----2--------------------------------------------------------3---------|
A|-0-3--------------3-5-----------------------2-3-5-----------3-----------|
E|--------0-0-0---2------0-0-0--0-0-0--0-0-0---------0-0-0--1------0-0-0--|

e|------------------------------------------------------------------------|
B|------------------------------------------------------------------------|
G|------------------------------------------------------------------------|
D|--------3-----------------2----------------------------------------2----|
A|----------4-3---2-----------2-3--------------------------------0-3------|
E|-0-0-0--------4----0-0-0---------0-0-0--0--0-0-0--0--0-0-0--0-----------|

e|------------------------------------------------------------------------|
B|------------------------------------------------------------------------|
G|------------------------------------------------------------------------|
D|-----------------------------------------------3------------------------|
A|----------3-5----------------2-3-5-----------3--------------------------|
E|-0-0-0--2------0-0-0--0-0-0---------0-0-0--1------0-0-0--0-0-0--0-0-0---|

e|----------------------------------------|
B|----------------------------------------|
G|----------------------------------------|
D|-3----------------2---------------------|
A|---4-3---2----------2-3-----------------|
E|-------4----0-0-0--------0-0-0--0-0-0---|

Riff E - Both w/Fill E - 2x (cut last chord 2nd time)
e|------------------------------------------------------------------------|
B|------------------------------------------------------------------------|
G|-------------------------10-9--10-9-------------------------10-9--------|
D|---------7---9---7--9-10-8--7--8--7---------7---9---7--9-10-8--7-10-10-9|
A|-5---7---5---7---5--7-8-------------5---7---5---7---5--7-8-------8--8--7|
E|-3---5------------------------------3---5-------------------------------|

Fill E - 2x
e|------------------------------------------------------------------------|
B|--------------------------------------5---------------------------------|
G|-4--7--5---4-5-4----------------4-5-7---7-5---4--7--5---4-5-4-----------|
D|------------------7--4--5----7---------------------------------7--4--5--|
A|------------------------------------------------------------------------|
E|------------------------------------------------------------------------|

e|--------------------|
B|----------5---------|
G|----4-5-7---7-5-4---|
D|-7------------------|
A|--------------------|
E|--------------------|

Repeat Riff A - 2x

once
e|-------0-------0--|
B|----4-------4-----|
G|------------------|
D|-2--------0-------|
A|------------------|
E|------------------|

Riff F - Left Guitar - 4x
e|------------------------------------------------------------------------|
B|------------------------------------------------------------------------|
G|------------------------------------------------------------------------|
D|---------3-6---3-4---4-4-4-------------------------3-6---3-4---4-4-4----|
A|-4---7---1-4---1-2-----------5-5-5-5-5-5---4---7---1-4---1-2------------|
E|-4-0---0-----0-----0-------0-------------4-4-0---0-----0-----0----------|

e|------------------------|
B|------------------------|
G|------------------------|
D|-4-4-4------------------|
A|---------5-5-5-5-5-5----|
E|-------0-------------4--|

Riff F - Right Guitar - 4x
e|------------------------------------------------------------------------|
B|------------------------------------------------------------------------|
G|---------5-8---2-3---------------------------------5-8---2-3------------|
D|---------3-6---3-4---5-5-5---6-6-6-6-6-6-----------3-6---3-4---5-5-5----|
A|-4---7---------1-2-------------------------4---7---------1-2------------|
E|-4-0---0-----0-----0-------0-------------4-4-0---0-----0-----0----------|

e|------------------------|
B|------------------------|
G|------------------------|
D|-5-5-5---6-6-6-6-6-6----|
A|------------------------|
E|-------0-------------4--|

Repeat Riff C - 7x

once
e|------------------------------------|
B|------------------------------------|
G|------------------------------------|
D|------------------------------------|
A|-3---2---------3---2----------------|
E|---4----0-0-0----4------------------|

Repeat Riff D1 - once
Repeat Riff D2 - once
Repeat Riff w/Fill E - 2x

once
e|------------|
B|------------|
G|-9----------|
D|-9----2-----|
A|-7----3-----|
E|------------|

Riff G - Left Guitar - 3x
e|----------------------------------------------------------|
B|----------------------------------------------------------|
G|----------------------------------------------------------|
D|------2------------2--------------------------3-----------|
A|-2------2-3----0-3-------3-5-----2-3-5------3------4-3----|
E|-----------------------2------------------1------------4--|

Riff G - Right Guitar - 3x
e|----------------------------------------------------------|
B|----------------------------------------------------------|
G|---------------5---4--------------------------------------|
D|-2----5-4-2------2-----0-2-4-----5-4--------5-7----3-2----|
A|-------------------------------------0----3---------------|
E|----------------------------------------------------------|

Riff G Alternate - play this if you want to do both parts together
e|----------------------------------------------------------|
B|----------------------------------------------------------|
G|---------------5---4--------------------------2-----------|
D|-2----5-4-2------2-2-----2-4-----5-4-0------5-3----3-2-2--|
A|-2----7-2-3----0-3-----5-3-5-----2-3-0----3-3------4-3----|
E|-----------------------2------------------1------------4--|

Repeat Riff B - Clean Tone (with volume swells)
Repeat Riff B - Distorted Tone
Repeat Riff B - Clean Tone - End

volume swells                     *half bend              *half bend
e|---------------|----------------14-----------|----------14-----|
B|-8--7----12----|---8--7----12----------------|---12------------|
G|---------------|-----------------------------|-----------------|
D|---------------|-----------------------------|-----------------|
A|---------------|-----------------------------|-----------------|
E|---------------|-----------------------------|-----------------|


| /  slide up
| \  slide down
| h  hammer-on
| p  pull-off
| ~  vibrato
| +  harmonic
| x  Mute note
===========================================================================
            
Tabs too difficult? Try these video lessons and learn fast.




comments powered by Disqus
↑ Back to top | Tablatures and chords are parodies/interpretations of the original songs. You may use it for private study, scholarship, research or language learning purposes only