» » »

Shelter Tabs (ver.1)

Artists:  A B C D E F G H I J K L M N O P Q R S T U V W X Y Z # 

Shelter Tabs (ver.1)

Extol
Rating:
0/5 (0 votes)

Hard to play? Try these video lessons and learn fast.
                --------------------------------------------------------------------------
                         "SHELTER" - Extol
--------------------------------------------------------------------------

Tuning: Standard B
Note: Tune your 6th string down to B, then tune the rest of the strings 
the normal way. Extol does not tune to dropped B as noted on other tabs.        

I was just way too lazy to tab all the palm mutes, hammers, pulls and 
slides. The parts were challenging enough to figure out. If you can get 
through the song, you are good enough to know how to stylize the notes and 
chords to make it sound like the original. Crack your knuckles and get to 
work...Good Luck!

Fill A
e|---------0-----0------|
B|---0--------8---------|
G|-5----8---------------|
D|----------------------|
A|----------------------|
E|----------------------|

Riff A - Intro - Both w/Fill A - 4x
e|-----------------------|
B|-----------3--3--------|
G|-----------5--5---4----|
D|-2--4--5---5--5---4----|
A|-2--4--5---3--3---2----|
E|-0--2--3---3--3---2----|

e|------------------|
B|-----------3--3---|
G|-----------5--5---|
D|-2--4--5---5--5---|
A|-2--4--5---3--3---|
E|-0--2--3---3--3---|

Riff B - Left Guitar - once
e|-------------------------------------------------------------|
B|-------------------------------------------------------------|
G|-------------------------------------------------------------|
D|-------------------------------------------------------------|
A|-----------------------------2---------3----5--2--3---1------|
E|-0---------------------------0---------3----5--2--3---1------|

Riff B - Right Guitar - twice
e|------------------------------------------------------------------------|
B|------------------------------------------------------------------------|
G|------------------------------------------------------------------------|
D|------------------------------------------------------------------------|
A|---------7-7-3-3-6-6-6-6-2-2-2-2-3-3-3-3-3-3-5-5-2-2-2-2-3-3-3-3-1-1-1-1|
E|-0-0-0-0----------------------------------------------------------------|

Verse - Riff B Right Guitar For Both - 2x

Riff B - Right Guitar Changes To:
e|------------------------------------------------------------------------|
B|------------------------------------------------------------------------|
G|------------------------------------------------------------------------|
D|---------5-5-2-2-4-4-4-4-4-4-4-4-5-5-5-5-5-5-4-4-1-1-1-1-2-2-2-2-0-0-0-0|
A|------------------------------------------------------------------------|
E|-0-0-0-0----------------------------------------------------------------|

Play Both Parts Together Like This:
e|------------------------------------------------------------------------|
B|------------------------------------------------------------------------|
G|------------------------------------------------------------------------|
D|---------5-5-2-2-4-4-4-4-4-4-4-4-5-5-5-5-5-5-4-4-1-1-1-1-2-2-2-2-0-0-0-0|
A|---------7-7-3-3-6-6-6-6-2-2-2-2-3-3-3-3-3-3-5-5-2-2-2-2-3-3-3-3-1-1-1-1|
E|-0-0-0-0----------------------------------------------------------------|

Riff C - Left Guitar                         16x
e|------------------|---------------------------|
B|------------------|---------------------------|
G|------------------|---------------------------|
D|-0--5--8----------|--4-4-4-4--0--5--8---------|
A|----------6---3---|--------------------6--3---|
E|------------------|---------------------------|

Riff C - Right Guitar                  *half bend   
e|----------------|-------------------------------------------------------|
B|----------------|-------------------------------------------------------|
G|-0--5--8--------|-2---3-5---2---3-5--7-------5-3--------------2--3-5--2-|
D|----------5-----|---------------------------------5-5--5----------------|
A|-------------6--|-----------------------------------------5-------------|
E|----------------|-------------------------------------------------------|
        *half bend                             2x (skip last note sequence)
e|-----------------------------------------------|
B|-----------------------------------------------|
G|-3-5--7-------5-3----------3-3-3-3-0-5-8-------|
D|-------------------5-5--5----------------5-----|
A|-------------------------------------------6---|
E|-----------------------------------------------|

Riff D - Both w/Fill D - 2x
e|------------------------------------------------------------------------|
B|------------------------------------------------------------------------|
G|------------------------------------------------------------------------|
D|-4-4-4-5-5-5-4-4-4-4-----------------------4-4-4-5-5-5-3-3-3------------|
A|-2-2-2-2-2-2-0-0-0-0-----------------------2-2-2-2-2-2-1-1-1------------|
E|-----------------------0-0-0-0---0-0-0-0----------------------0-0-0-0-0-|

e|--------|
B|--------|
G|--------|
D|-5--5---|
A|-2--3---|
E|--------|

Fill D
e|------------------------------------------------------------------------|
B|------------------------------------------------------------------------|
G|---------7---6---9---7-------------7--6----9---7-------7----9-----------|
D|-4---9----------------------4---9---------------------------------------|
A|------------------------------------------------------------------------|
E|------------------------------------------------------------------------|

Repeat Riff C Main Part - 2x
Repeat Riff D w/Fill D - 4x
Repeat Riff B - Both - 2x
Repeat Riff B - Left And Right Separate Parts

Riff E - Both w/Solo - 3x
e|------------------------------------------------------------------------|
B|------------------------------------------------------------------------|
G|-2-----5----------2----6-----------------------------5------------------|
D|-2-----5---2------2----5--2---------------3----2-----5---5----8----6----|
A|-0-----3---2------0----3--2---------------3----2-----3---5----8----6----|
E|-----------0--------------0------3-5-7----1----0---------3----6----4----|
               
e|---------------|
B|---------------|
G|---------------|
D|-8-----6-------|
A|-8-----6-------|
E|-6-----4-------|

Repeat Riff E - 2x

End
e|------------------------------------------------------------------------|
B|------------------------------------------------------------------------|
G|-----------------2--------5---------------------------------------------|
D|-8-----6---------2--------5----2----------------------------------------|
A|-8-----6---------0--------3----2----------------------------------------|
E|-6-----4-----------------------0----------------------------------------|

Did Not Transcribe Solo - Wah Junk


| /  slide up
| \  slide down
| h  hammer-on
| p  pull-off
| ~  vibrato
| +  harmonic
| x  Mute note
===========================================================================
            
Hard to play? Try these video lessons and learn fast. | Correct




comments powered by Disqus
↑ Back to top | Tablatures and chords are parodies/interpretations of the original songs. You may use it for private study, scholarship, research or language learning purposes only