>
 >
Renewal

Renewal Guitar Tabs

Extol - Renewal chords, tabs, tablatures, lyrics

Guitar lessons | Add/correct | Request | Top 50 tabs Artists:  A B C D E F G H I J K L M N O P Q R S T U V W X Y Z 0-9

Renewal Guitar Tabs – Extol

CD, Sheet music, Poster

Do you like Renewal? Share with your friends now
Tabs
--------------------------------------------------------------------------
                         "RENEWAL" - Extol
--------------------------------------------------------------------------

Tuning: Standard B
Note: Tune your 6th string down to B, then tune the rest of the strings 
the normal way. Extol does not tune to dropped B as noted on other tabs.        

I was just way too lazy to tab all the palm mutes, hammers, pulls and 
slides. The parts were challenging enough to figure out. If you can get 
through the song, you are good enough to know how to stylize the notes and 
chords to make it sound like the original. Crack your knuckles and get to 
work...Good Luck!

Riff A - Intro - Left Guitar
e|------------------------------------------------------------------------|
B|------------------------------------------------------------------------|
G|------------------------------------------------------------------------|
D|--------------------------5-------4-7-----------------------------------|
A|----------8-------------5-----3-6-------------3-3-3-------------------8-|
E|-3--6--5-----7-7-7-7-7-----------------0-0-0---------2-2-2---3--6--5----|

e|------------------------------------------------------------------------|
B|------------------------------------------------------------------------|
G|------------------------------------------------------------------------|
D|--------------5------4-7------------------------------------------------|
A|------------5----3-6-------------3-3-3-----------------5-5-5-5-5-5------|
E|-7-7-7-7-7----------------0-0-0---------2-2-2---2--0---------------4--4-|

e|------------------------------------------------------------------------|
B|------------------------------------------------------------------------|
G|------------------------------------------------------------------------|
D|--------------------------5-------4-7-----------------------------------|
A|----------8-------------5-----3-6-------------3-3-3-------------------8-|
E|-3--6--5-----7-7-7-7-7-----------------0-0-0---------2-2-2---3--6--5----|

e|------------------------------------------------------------------------|
B|------------------------------------------------------------------------|
G|------------------------------------------------------------------------|
D|--------------5------4-7------------------------------------------------|
A|------------5----3-6-------------3-3-3-----------------5-5-5-5-5-5------|
E|-7-7-7-7-7----------------0-0-0---------2-2-2---2--0---------------4--4-|

e|------------------------------------------------------------------------|
B|------------------------------------------------------------------------|
G|------------------------------------------------------------------------|
D|-6-6-6-6-6-6--------------------------6-6-6-6-6-6-----------------------|
A|--------------------5-5-5-5-5-5--------------------------5-5-5-5-5-5----|
E|--------------2--0---------------4--4--------------2--0-----------------|

e|--------------------------------------------|
B|--------------------------------------------|
G|--------------------------------------------|
D|------6-6-6-6-6-6---------------------------|
A|-------------------------5-5-5-5-5-5--------|
E|-4--4--------------2--0---------------4--4--|

Riff A - Intro - Right Guitar
e|------------------------------------------------------------------------|
B|------------------------------------------------------------------------|
G|------------------------------------------------------------------------|
D|--------------------------5-------4-7-----------------------------------|
A|----------8-------------5-----3-6-------------3-3-3-------------------8-|
E|-3--6--5-----7-7-7-7-7-----------------0-0-0---------2-2-2---3--6--5----|

e|------------------------------------------------------------------------|
B|------------------------------------------------------------------------|
G|------------------------------------------------------------------------|
D|--------------5------4-7------------------------------------------------|
A|------------5----3-6-------------3-3-3-----------------5-5-5-5-5-5------|
E|-7-7-7-7-7----------------0-0-0---------2-2-2---2--0---------------4--4-|

e|------------------------------------------------------------------------|
B|------------------------------------------------------------------------|
G|-7--0-----5---------------3------2-5----------------------7--0-----5----|
D|-------4----------------3----1-4--------------------------------4-------|
A|-------------2-2-2-2-2-----------------------3-3-3----------------------|
E|--------------------------------------0-0-0---------2-2-2---------------|

e|------------------------------------------------------------------------|
B|------------------------------------------------------------------------|
G|--------------3-----2-5-------------------------------------------------|
D|------------3---1-4-----------------------------------------------------|
A|-2-2-2-2-2---------------------3-3-3----------------5-5-5-5-5-5---------|
E|------------------------0-0-0---------2-2-2---2--0---------------4--4---|

e|------------------------------------------------------------------------|
B|------------------------------------------------------------------------|
G|------------------------------------------------------------------------|
D|-6-6-6-6-6-6---------------------------6-6-6-6-6-6----------------------|
A|--------------------5-5-5-5-5-5----------------------------5-5-5-5-5-5--|
E|--------------2--0---------------4--4----------------2--0---------------|

e|---------------------------------------------|
B|---------------------------------------------|
G|---------------------------------------------|
D|-------6-6-6-6-6-6---------------------------|
A|--------------------------5-5-5-5-5-5--------|
E|-4--4---------------2--0---------------4--4--|

Riff B - Both Guitars with Fill B
e|------------------------------------------------------------------------|
B|------------------------------------------------------------------------|
G|------------------------------------------------------------------------|
D|------------------------------------------------------------------------|
A|-3-----4-----7----7------3-----4-----7----7------3-----4-----7--7-7-7-7-|
E|-1-----2-----5----4---0--1-----2-----5----4---0--1-----2-----5--4-4-4-4-|

e|----------------------------|
B|----------------------------|
G|----------------------------|
D|----------------------------|
A|-3-----4-----7----7---7-----|
E|-1-----2-----5----4---4-----|

Fill B - 2x       *half bend                              *half bend
e|------------------------------------------------------------------------|
B|------------------------------------------------------------------------|
G|-----9---8------11---------------9---------9---8--------11--------------|
D|-7----------10------------10--9-------7------------10--------10----9----|
A|------------------------------------------------------------------------|
E|------------------------------------------------------------------------|

Riff C - Verse
e|------------------------------------------------------------------------|
B|-2-----3-------------------2-----6----------------2-----3----3-------1--|
G|-0-----0------------3------0-----5-----4----------0-----0----0-------3--|
D|-2-----0------3-----3------2-----7-----5-----3----2-----0----0---3---3--|
A|-0-----2------3-----1------0-----0-----5-----3----0-----2----3---3---1--|
E|--------------1------------------------3-----1-------------------1------|

Riff D - Pre-Chorus - Both Guitars with Fill D
e|------------------------------------------------------------------------|
B|------------------------------------------------------------------------|
G|-2--0-----4--------------2--0-----4-------------------------------------|
D|-------2-----------------------2----------------6-6-6-7-7-7-9-----6-6-6-|
A|-------------2------2----------------2-----2----4-4-4-5-5-5-7-7-5-4-4-4-|
E|------------------3---3------------------3---3----------------5-3-------|

e|------------------------------------------------------------------------|
B|------------------------------------------------------------------------|
G|-------------2--0-----4------------2--0-----4---------------------------|
D|-7-7-7-9-----------2---------------------2---------------6-6-6-7-7-7-9--|
A|-5-5-5-7-7-5-------------2----2---------------2----2-----4-4-4-5-5-5-7--|
E|---------5-3----------------3---3----------------3---3------------------|

e|------------------------------------------------------------------------|
B|------------------------------------------------------------------------|
G|---------6-----7------------------------6-----7-----4-----4-----------6-|
D|-------4-----5----6-6-6-7-7-7-9-------4-----5-----6-----7---6-------4---|
A|-7-5-0-----0------4-4-4-5-5-5-7-7-5-0-----0-----4-----5-------7-6-0-----|
E|-5-3----------------------------5-3-------------------------------------|

e|-----------------------------------------|
B|-----------------------------------------|
G|-----7-----4-----4-----------6-----7-----|
D|---5-----6-----7---6-------4-----5-------|
A|-0-----4-----5-------7-6-0-----0---------|
E|-----------------------------------------|

Fill D
e|------------------------------------------------------------------------|
B|------------------------------------------------------------------------|
G|-6--4-----7------------6--4----7----------------4-----4------------4----|
D|-------5-----4----4----------5----4----4------6-----7---6--------6------|
A|----------------5---5----------------5---5--4-----5-------7-5--4-----5--|
E|------------------------------------------------------------------------|

e|------------------------------------------------------------------------|
B|------------------------------------------------------------------------|
G|---4--------6--4-----7-----------6--4----7----------------4-----4-------|
D|-7---6------------5----4----4----------5----4----4------6-----7---6-----|
A|-------7-5----------------5---5----------------5---5--4-----5-------7-5-|
E|------------------------------------------------------------------------|

e|------------------------------------------------------------------------|
B|------------------------------------------------------------------------|
G|-----6-----7-----4-----4-----------6--------------11-------11-----------|
D|---4-----5-----6-----7---6-------4-------7-----13-------14----13--------|
A|-0-----0-----4-----5-------7-6-0-----0-5----11-------12----------14-13--|
E|------------------------------------------------------------------------|

e|---------------------------------------------------------|
B|---------------------------------------------------------|
G|-----9-----11-------11-------11---------------9-----11---|
D|---7-----9-------13-------14----13---------7-----9-------|
A|-0-----0------11-------12----------14-13-0-----0---------|
E|---------------------------------------------------------|

Repeat Riff B with Fill B - 2x, then Riff B1 underneath with Fill B

Riff B1
e|------------------------------------------------------------------------|
B|------------------------------------------------------------------------|
G|------------------------------------------------------------------------|
D|------------------------------------------------------------------------|
A|-3-3-3-3-3-3-3-3-3-3-3-3-3-3-3-3-4-4-4-4-7-7-7-7-7-7-7-7-7-7-7-7--------|
E|-1-1-1-1-1-1-1-1-1-1-1-1-1-1-1-1-2-2-2-2-5-5-5-5-5-5-5-5-4-4-4-4--------|

e|------------------------------------------------------------|
B|------------------------------------------------------------|
G|------------------------------------------------------------|
D|------------------------------------------------------------|
A|-3-3-3-3-3-3-3-3-3-3-3-3-3-3-3-3-4-4-4-4-7-----7---7--------|
E|-1-1-1-1-1-1-1-1-1-1-1-1-1-1-1-1-2-2-2-2-5-----4---4--------|

Repeat Riff C once with alternate final chord 

alternate final chord
e|----------|
B|----------|
G|----------|
D|--5-------|
A|--5-------|
E|--3-------|

Riff E - Chorus - 8x
e|--------------------------------------------------------------|
B|--------------------------------------------------------------|
G|--------------------------------------------------------------|
D|--------------------------------------------------------------|
A|---------4-4-4-4-------------------------5---------------5----|
E|-2-2-2-2---------2-2-2-2-3-3-3-3-0-0-0-0-3---0-0-0-0-0-0-3----|

Riff F - Clean Guitar 1
e|----------------------|
B|----------------------|
G|-2--------------------|
D|-0--------------------|
A|--------------0-1-3---|
E|-----0--1--3----------|

Riff F - Clean Guitar 2
e|-15-------12---13----12------------------|
B|-13-------13--------------13-------------|
G|-14-------12-----------------14----12----|
D|-----------------------------------------|
A|-----------------------------------------|
E|-----------------------------------------|

Riff G - Clean Guitar 1 - 4x
e|---------------------------------|
B|---------------------------------|
G|----2-----2----2-----2-----------|
D|-0-------------------------------|
A|------------------------0--1--3--|
E|-------0-----1----3--------------|

Riff G - Clean Guitar 2 - 4x
e|----5-----5-----5------5--------------|
B|--------------------------------------|
G|--------------------0------2--3--5----|
D|-0-----2-----3------------------------|
A|--------------------------------------|
E|--------------------------------------|

Riff H - Both Guitars - 2x
e|------------------------------------------------------------------------|
B|------------------------------------------------------------------------|
G|------------------------------------------------------------------------|
D|------------------------------------------------------------------------|
A|------------------------------------------------------------------------|
E|-0-0-0----0-0-0-0-0-0-0----0-0-0-0-0-0-0----0-0-0-0-0-0-0---0-0-0-0-0-0-|

e|------------------------------------------------------------------------|
B|------------------------------------------------------------------------|
G|-----3------------------------------------------------------------------|
D|---0--------------------------------------------------------------------|
A|------------------------------------------------------------------------|
E|-4-------0-0-0----0-0-0-0-0-0-0----0-0-0-0-0-0-0----0-0-0-0-0-0-0---0-0-|

e|-------------------------1----|
B|-------------------------1----|
G|-----------------3---3---3----|
D|---------------0-----3--------|
A|---------------------1--------|
E|-0-0-0-0----4-----------------|

Riff I
e|------------------------------------------------------------------------|
B|------------------------------------------------------------------------|
G|------------------------------------------------------------------------|
D|------------------------------------------------------------------------|
A|------------------------------------------------------------------------|
E|-0-0-0----0-0-0-0-0-0-0----0-0-0-0-0-0-0----0-0-0-0-0-0-0---0-0-0-0-0-0-|

e|------------------------------------------------------------------------|
B|------------------------------------------------------------------------|
G|-----3------------------------------------------------------------------|
D|---0-------------------------------------------8------------------------|
A|-----------------------------------------------7------------------------|
E|-4-------0-0-0----0-0-0-0-0-0-0----0-0-0-0-0-0-0----0-0-0-0-0-0-0---0-0-|

e|-------------------------1----|
B|-------------------------1----|
G|-----------------3---3---3----|
D|---------------0-----3--------|
A|---------------------1--------|
E|-0-0-0-0----4-----------------|

Fill I - 2x
e|------------------------------------------------------------------------|
B|------------------------------------------------------------------------|
G|-6--4--0--7-------6-------------6--4--0---7---------6-------------------|
D|------------5--4----4--0---7--0--------------5--4------4--0--7--0--7--0-|
A|------------------------------------------------------------------------|
E|------------------------------------------------------------------------|

Repeat Riff D - shortened version (when you learn the long version, you
will get the short version easily)
Repeat Riff C with alternate G chord at end - 2x
Repeat Riff E - 8x
Repeat Riff A to end


| /  slide up
| \  slide down
| h  hammer-on
| p  pull-off
| ~  vibrato
| +  harmonic
| x  Mute note
===========================================================================





Comments


Popular Extol tabs & chords
A Structure Of Souls Tabs
Aperture Tabs
Emancipation Tabs
Grace For Succession Tabs
Nihilism 2002 Tabs
Paradigms Tabs
Shelter Tabs
Storms Of Disillusions Intro Tabs
Time Stands Still Tabs
Will You Be There Tabs


Song lyrics



↑ Back to top | Tablatures and chords are parodies/interpretations of the original songs. You may use it for private study, scholarship, research or language learning purposes only
© 2014 AZChords.com Contact us | Privacy policy | DMCA | Add/correct tabs | Request tabs | Top 50 tabs