» » »

Extol, Psychopath Tabs (ver.1)

Artists:  A B C D E F G H I J K L M N O P Q R S T U V W X Y Z # 

Psychopath Tabs (ver.1)

Extol Tabs
Rating:
0/5 (0 votes)
Psychopath lessons Tabs too difficult? Try these video lessons and learn fast
                ----------------------------------------------------------------------------
		       "Psychopath" - Extol
----------------------------------------------------------------------------

Tuning: Standard D
Note: Tune your 6th string to D, then tune the rest of the strings the 
normal way. Extol does not tune to dropped D as noted on other tabs.	

I was just way too lazy to tab all the palm mutes, hammers, pulls and 
slides. The parts were challenging enough to figure out. If you can get 
through the song, you are good enough to know how to stylize the notes and 
chords to make it sound like the original. Crack your knuckles and get to 
work...Good Luck!

*SPECIAL NOTE - I didn't transcribe the solos, but I play them when I play
the song. If you are really into Extol and this transcription, send an

Riff A1 - Left Guitar (2x)

e|------------------------------------------------------------------------|
B|------------------------------------------------------------------------|
G|-----------------------------------------------------0-8-6-0-2-0-4------|
D|-----------------------6-6-6-6-6---4-4-4-4-4---5-4----------------------|
A|-0-0-0-0-0-0-0-0-0-0-5-----------5--------------------------------------|
E|---------------------------------------------0-----0---------------0-0--|

Riff A1 - Right Guitar(2x)

e|-----------------------------------------------------------------|
B|-----------------------------------------------------------------|
G|10---------12---------12-----------5-5-5-5-5---6-6-6-6-6---6-5---|
D|---------------------------------0-----------0-------------------|
A|---0-0-0-0----0-0-0-0----0-0-0-0---------------------------------|
E|---------------------------------------------------------0-----0-|

				Riff A2

e|--------------------|		|-----0--0-------0--0--------|
B|--------------------|		|-----0--0-------0--0--------|
G|-0-8-6-0-2-0-4------|		|-----7--7-------5--5--------|
D|--------------------|		|-----7--7-------5--5--------|
A|--------------------|		|-----5--5-------3--3--------|
E|---------------0-0--|		|-0-0-------0-0--------0-0---|

Repeat A1 2x
Repeat A2 2x

Riff B

e|-------------------------------------------------------------------------|
B|---------0---------0----------0----------0----------0----------0--------0|
G|-----2---------4----------3----------3----------3----------5---------4---|
D|-------3---------5----------4----------2------2---2------4---4-----3---3-|
A|---3---------5----------4----------2--------3----------5---------4-------|
E|-1---------3----------2----------0---------------------------------------|

e|-------------|
B|---------0---|
G|-----4-------|
D|---3---3-----|
A|-4-----------|
E|-------------|

Riff C - Left Guitar (x2)

e|-------------------------------------------------------------------------|
B|-----------------------------------------------------------8-------------|
G|------------------------------------0---0--6-----4-----0-6-----------8---|
D|-7-----6----------------------3--------------------5-------------0-6-----|
A|---------7----------3-3-3---------5---4------0-0-----0-------0-0---------|
E|---0-0-----0-0-0--0-------5-4---4----------------------------------------|

e|-------------------------|
B|-------------------------|
G|------------10-----------|
D|--------0-8--------------|
A|-0-0-0---------0-0-0-0---|
E|-------------------------|

Riff C - Right Guitar (2x)

e|-------------------------------------------------------------------------|
B|------------------------------------------------------------11-----------|
G|-9-----8--------------------------5---5--11-----10------0-9------------11|
D|---------8----------5-5-5-4---3--------------------11--------------0-9---|
A|----------------------------0---5---4-------0-0-------0--------0-0-------|
E|---0-0-----0-0-0--0------------------------------------------------------|

e|-------------------------|
B|-------------------------|
G|------------13-----------|
D|-------0-11--------------|
A|-0-0-0---------0-0-0-0---|
E|-------------------------|

Riff D

e|-------------------------------------------------------------------------|
B|-------------------------------------------------------------------------|
G|---------------------------0---------------------------------------------|
D|--------------3-5-3-0----3----8-0-6-0-6-8-6-0-3-5-3-0-----------3-5-3-0--|
A|-----------------------4-------------------------------------------------|
E|-0-0-0-0-0--------------------------------------------0-0-0-0-0----------|

e|-------------------------------------------------------------------------|
B|-------------------------------------------------------------------------|
G|-----0---------------------------------------------------0---------------|
D|---3----6-0-6-0-0-6-8-0-4-0-4-0--------------3-5-3-0---3----8-0-----0-6-0|
A|-4---------------------------------------------------4----------4-0------|
E|---------------------------------0-0-0-0-0-------------------------------|

e|-------------------------------------------------------------------------|
B|-------------------------------------------------------------------------|
G|------------------------------------0------------------------------------|
D|---3-0-3-0-------------3-5-3-0----3----8-0-----0-6-0---3-0-3-0-----------|
A|-4------------------------------4----------4-0-------4-------------------|
E|------------0-0-0-0-0------------------------------------------0-0-0-0-0-|

Repeat Riff A1 2x
Repeat Riff B 2x

Riff E (4x, with Solo)

e|-------------------------------------------------------------------------|
B|-------------------------------------------------------------------------|
G|---------------------6------6------------------5------------3------------|
D|-4-----------4-----4------4-----5-----------5--5-----3------3------------|
A|-4-----------4------------------5-----------5--3-----3------1-----3--2---|
E|-2--2-2-2-2--2---6------5-------3--3-3-3-3--3--3--0--1--0---1--0--1--0---|

Riff F - Left Guitar (4x, with Solo)

e|-------------------------------------------------------------------------|
B|-------------------------------------------------------------------------|
G|-0-0-0-0-0-0-------------------------------------7-7-7-7-6-6-6-6-0-0-0---|
D|-2-2-2-0-0-0-5-5-5-5-5-5-5-5-5-5-4-4-4-5-5-5-5-5-7-7-7-7-7-7-7-7-2-2-2---|
A|-------------4-4-4-4-4-4-4-4-4-4-3-3-3-3-3-3-3-3-0-0-0-0-0-0-0-0---------|
E|-------------------------------------------------------------------------|

e|----------------------------------------------------------------------|
B|----------------------------------------------------------------------|
G|-0-0-0-0-0-0-------------------------------------3-3-3-3-3-3-3-3------|
D|-2-2-2-0-0-0-5-5-5-5-5-5-5-5-5-5-3-3-3-3-3-3-3-3-3-3-3-3-3-3-3-3------|
A|-------------4-4-4-4-4-4-4-4-4-4-3-3-3-3-3-3-3-3-1-1-1-1-1-1-1-1------|
E|---------------------------------1-1-1-1-1-1-1-1----------------------|

Riff F - Right Guitar (4x, with Solo)

e|-------------------------------------------------------------------------|
B|-------------------------------------------------------------------------|
G|-9-9-9-9-9-9-9-9-9-9-9-9-9-9-9-9-7-7-7-7-7-7-7-7-7-7-7-7-6-6-6-6-9-9-9-9-|
D|-9-9-9-9-9-9-7-7-7-7-7-7-7-7-7-7-7-7-7-9-9-9-9-9-9-9-9-9-7-7-7-7-9-9-9-9-|
A|-------------------------------------------------------------------------|
E|-------------------------------------------------------------------------|

e|------------------------------------------------------------|
B|-----------------------8-8-8-8-8-8-8-8-8-8-8-8-8-8-8-8------|
G|-9-9-9-9-9-9-9-9-9-9-9-8-8-8-8-8-8-8-8-7-7-7-7-7-7-7-7------|
D|-9-7-7-7-7-7-7-7-7-7-7-6-6-6-6-6-6-6-6-6-6-6-6-6-6-6-6------|
A|------------------------------------------------------------|
E|------------------------------------------------------------|

Repeat Riff C 2x

Riff G (once, partial riff D)

e|-------------------------------------------------------------------------|
B|-------------------------------------------------------------------------|
G|----------------------0------------------------------------------------0-|
D|----------3-5-3-0---3---8-0-6-0-6-8-6-0-3-5-3-0------------3-5-3-0---3---|
A|--------------------4----------------------------------------------4-----|
E|-0-0-0-0-0---------------------------------------0-0-0-0-0---------------|

Repeat Riff A1 2x
Repeat Riff A2 2x (end)

============================================================================
            

comments powered by Disqus
↑ Back to top | Extol Tabs for Psychopath. Lyrics for acoustic guitar and electric guitar. Tablatures and chords are parodies/interpretations of the original songs. You may use it for private study, scholarship, research or language learning purposes only