» » »

Extol, Paradigms Tabs (ver.2)

Artists:  A B C D E F G H I J K L M N O P Q R S T U V W X Y Z # 

Paradigms Tabs (ver.2)

Extol Tabs
 Rating:
3.4/5 (5 votes)
Paradigms lessons Tabs too difficult? Try these video lessons and learn fast
                (Intro)
Band: Extol

This is one of my favorite songs, but I couldn't find any tab so I tried to tab it 
The rest of the song will come in time...


e|------------------------------------------------------|
B|------------------------------------------------------|
G|------------------------------------------------------|
D|--8-/-7--7----8---8-8--------8-/-7--7-----8---8-8-----| x4
A|--8-/-7--7----7---7-7--------8-/-7--7-----7---7-7-----|
D|--8-/-7--7----5---5-5--------8-/-7--7-----5---5-5-----|


e|------------------------------------------------------|
B|------------------------------------------------------|
G|------------------------------------------------------|
D|-10-/-9--9----7---7-7-------10-/-9--9-----7---7-7-----| x2
A|--8-/-7--7----8---8-8--------8-/-7--7-----8---8-8-----|
D|--8-/-7--7----5---5-5--------8-/-7--7-----5---5-5-----|


You'll have to listen to the song to get the rythm right at this part

e|---------------------------------------------|
B|---------------------------------------------|
G|------------------------2-2-2----2-2-2-2-----|
D|---7-7-7-x--7-7-7-7-----0-0-0-x--0-0-0-0-----|
A|---8-8-8-x--8-8-8-8-----0-0-0-x--0-0-0-0-----|
D|---5-5-5-x--5-5-5-5-----0-0-0-x--0-0-0-0-----|


e|---3-3-3-x--3-3-3-3-----1-1-1-x--1-1-1-1-----|
B|---4-4-4-x--4-4-4-4-----2-2-2-x--2-2-2-2-----|
G|---3-3-3-x--3-3-3-3-----1-1-1-x--1-1-1-1-----|
D|---5-5-5-x--5-5-5-5-----3-3-3-x--3-3-3-3-----|
A|---3-3-3-x--3-3-3-3-----1-1-1-x--1-1-1-1-----|
D|---------------------------------------------|

Chorus is the same as the last part of intro, only a bit different rythm, so just listen 
try ;)
            
Submit corrections

comments powered by Disqus
↑ Back to top | Extol Tabs for Paradigms. Lyrics for acoustic guitar and electric guitar. Tablatures and chords are parodies/interpretations of the original songs. You may use it for private study, scholarship, research or language learning purposes only