» » »

Extol, Nihilism 2002 Tabs (ver.1)

Artists:  A B C D E F G H I J K L M N O P Q R S T U V W X Y Z # 

Nihilism 2002 Tabs (ver.1)

Extol Tabs
 Rating:
4/5 (4 votes)
Nihilism 2002 lessons Tabs too difficult? Try these video lessons and learn fast
                ---------------------------------------------------------------------------
                       "NIHILISM 2002" - Extol
---------------------------------------------------------------------------

Tuning: Standard D
Note: Tune your 6th string to D, then tune the rest of the strings the 
normal way. Extol does not tune to dropped D as noted on other tabs.    

I was just way too lazy to tab all the palm mutes, hammers, pulls and 
slides. The parts were challenging enough to figure out. If you can get 
through the song, you are good enough to know how to stylize the notes
and chords to make it sound like the original. Crack your knuckles and get 
to work...Good Luck!

Riff A - Verse - Both Guitars - 2x
e|------------------------------------------------------------------------|
B|------------------------------------------------------------------------|
G|-----------4-0---2---------------------------------------4-0---2--------|
D|---------------3----------4------2-3-2----5------------------3---------4|
A|--------------------4-0-1----------------------------------------4-0-1--|
E|-0--0-0-0--------------------4-4--------3---1--0--0-0-0-----------------|

e|------------------------------------------------------------------------|
B|------------------------------------------------------------------------|
G|----------------------------------------------0------7------7---7--7--7-|
D|-----2-3-2-----2-3-2--------------------2-0----------------7---7--7--7--|
A|-----------------------5-5-5-5-5------------3---2--5---5--4---4--4--4---|
E|-4-4-------3-3--------------------0--0----------------------------------|

Riff A - Verse - Right Guitar second time
e|------------------------------------------------------------------------|
B|------------------------------------------------------------------------|
G|-----------9-7--------------------5-7-5---4--------------9-7------------|
D|---------------------------8-------------------------------------------8|
A|---------------7-8-7-----7----7-7-------5---3----------------7-8-7---7--|
E|-0--0-0-0-------------9------------------------0--0-0-0------------9----|

e|------------------------------------------------------------------------|
B|------------------------------------------------------------------------|
G|-----5-7-5------5-7-5-------------------------0------7------------------|
D|----------------------------------------2-0------------14-0-14-0-14-0-14|
A|-7-7-------7-7---------5-5-5-5-5------------3---2--5--------------------|
E|----------------------------------0--0----------------------------------|

RIff B - Chorus - Both - 2x
e|------------------------------------------------------------------------|
B|------------------------------------------------------------------------|
G|------------------------------------------------------------------------|
D|-9-9-9-7-7-7---------------------7-7-7----------3-3-3-3-3-3-3-3-3-3-----|
A|-0-0-0-0-0-0-5-5-5-5-5-5-5-5-5-5-------10-10-10-------------------------|
E|-------------6-6-6-6-6-6-6-6-6-6-8-8-8-8--8--8--4-4-4-4-4-4-4-4-4-4-----|

e|------------------------------------------------------------------------|
B|------------------------------------------------------------------------|
G|------------------------------------------------------------------------|
D|------------------------------------------------------------------------|
A|-8-8-8-7-7-7-5-5-5-5-5-5-5-5-5-5-5-5-5-4-4-4-3-3-3-3-3-3-3-3-3-3--------|
E|-6-6-6-6-6-6-3-3-3-3-3-3-3-3-3-3-2-2-2-2-2-2-1-1-1-1-1-1-1-1-1-1--------|

Riff C - Left Guitar - 4x
e|------------------------------------------------------------------------|
B|------------------------------------------------------------------------|
G|------------------------------------------------------------------------|
D|-6-----6-----6-----6---------4-----4-----4-----4-2-----2-----2-----2----|
A|-7-----7-----7-----7---------3-3-3-3-3-3-3-3-3-3-0-0-0-0-0-0-0-0-0-0----|
E|---0-0---0-0---0-0---0-0-0-0--------------------------------------------|

e|--------------------------------|
B|--------------------------------|
G|--------------------------------|
D|---------5-----5-----5-----5----|
A|-0-0-0-0-3-3-3-3-3-3-3-3-3-3----|
E|--------------------------------|

Riff C - Right Guitar - 4x
e|------------------------------------------------------------------------|
B|-7-----7-----7-----7---------7-----7-----7-----7-1-----1-----1-----1----|
G|-----------------------------5-----5-----5-----5-0-----0-----0-----0----|
D|-7-----7-----6-----6---------4-----4-----4-----4-2-----2-----2-----2----|
A|-------------------------------3-3---3-3---3-3-----0-0---0-0---0-0------|
E|---0-0---0-0---0-0---0-0-0-0--------------------------------------------|

e|-------------------------------|
B|---------4-----4-----4-----4---|
G|---------3-----3-----3-----3---|
D|---------5-----5-----5-----5---|
A|-0-0-0-0---3-3---3-3---3-3-----|
E|-------------------------------|

Repeat Riff A
Repeat Riff B
Repeat Riff C
Solo - Be Creative With A Wah Pedal!


| /  slide up
| \  slide down
| h  hammer-on
| p  pull-off
| ~  vibrato
| +  harmonic
| x  Mute note
===========================================================================
            
Submit corrections

comments powered by Disqus
↑ Back to top | Extol Tabs for Nihilism 2002. Lyrics for acoustic guitar and electric guitar. Tablatures and chords are parodies/interpretations of the original songs. You may use it for private study, scholarship, research or language learning purposes only