» » »

Meadows Of Silence Tabs (ver.1)

Artists:  A B C D E F G H I J K L M N O P Q R S T U V W X Y Z # 

Meadows Of Silence Tabs (ver.1)

Extol
Rating:
0/5 (0 votes)

Hard to play? Try these video lessons and learn fast.
                --------------------------------------------------------------------------
                     "MEADOWS OF SILENCE" - Extol
--------------------------------------------------------------------------

Tuning: Standard B
Note: Tune your 6th string down to B, then tune the rest of the strings 
the normal way. Extol does not tune to dropped B as noted on other tabs.        

I was just way too lazy to tab all the palm mutes, hammers, pulls and 
slides. The parts were challenging enough to figure out. If you can get 
through the song, you are good enough to know how to stylize the notes and 
chords to make it sound like the original. Crack your knuckles and get to 
work...Good Luck!

Riff A - Guitar 1 - 2x
e|-5---5-------3------------3---------3----5----3----5---5-----3----------|
B|-3-------3-------3--------3----6-------------------3------3-----3-------|
G|-0------------------------0------------------------0--------------------|
D|-0-------------------0----0------------------------0---------------0----|
A|------------------------------------------------------------------------|
E|------------------------------------------------------------------------|

e|-3--------5-----5---5-----3---------3------3--5---3---------6---------6-|
B|-3----6---------3------3-----3------3---6----------------6-----6--11----|
G|-0--------------0-------------------0-----------------------------------|
D|-0--------------0---------------0---0-----------------------------------|
A|------------------------------------------------------6-----------------|
E|------------------------------------------------------------------------|

e|-------6------------|
B|----6-----6---11----|
G|--------------------|
D|--------------------|
A|-6------------------|
E|--------------------|

Riff B - Guitar 1
e|------------------------------------------------------------------------|
B|------8--10--8-------------8-----10---------8--10--8-----------8-10-8---|
G|---8------------8-------8-----8----------7------------7-----7---------7-|
D|------------------------------------------------------------------------|
A|------------------------------------------------------------------------|
E|-8-------------------8----------------7------------------7--------------|

e|------------------------------------------------------------------------|
B|------8--10--8-----------8------------------8--10--8----------7-10-7----|
G|---7------------7-----7------7-----------7------------7-----7--------7--|
D|--------------------------------------0------------------0--------------|
A|------------------------------------------------------------------------|
E|-6-----------------6-------------8--------------------------------------|

e|------------------------------------------------------------------------|
B|------8--10--8--------8-------------8--10--8---------8--10--8-----------|
G|---8-----------8----8---8---8-----8----------8-----8-----------8--------|
D|------------------------------------------------------------------------|
A|-6----------------6-------5---------------------------------------------|
E|--------------------------------8---------------8-----------------------|

e|--------------------------------------|
B|-------8--10--8------7-------10-------|
G|----7------------7-------7------------|
D|-0-------------------0----------------|
A|--------------------------------------|
E|--------------------------------------|

Repeat Riff A Once With Extended Ending

Guitar 2 - First Solo - 2x
e|-5-----3----3-5-----5-------5----6--8--10----5-----------------3-5---8--|
B|--------------------------------------------------------8---6-----------|
G|-----------------------------------------------------7------------------|
D|------------------------------------------------------------------------|
A|------------------------------------------------------------------------|
E|------------------------------------------------------------------------|
        
e|--6---------5--6-----3------|
B|----------------------------|
G|----------------------------|
D|----------------------------|
A|----------------------------|
E|----------------------------|

Guitar 2 - Second Solo
e|----------15-----------15------15--------------------------------8-10-11|
B|----------------------------------16-15--------8-10--11-------11--------|
G|-10--12-----------------------------------------------------------------|
D|------------------------------------------------------------------------|
A|------------------------------------------------------------------------|
E|------------------------------------------------------------------------|

e|-10----8--6--5------------5-6--------13-10--11-10-----------------------|
B|-----------------7-------------8-------------------13--11----10-11---8--|
G|------------------------------------------------------------------------|
D|------------------------------------------------------------------------|
A|------------------------------------------------------------------------|
E|------------------------------------------------------------------------|

e|--------15--15--17--17--------15-14-----|
B|-------------------------15-------------|
G|-10--12---------------------------------|
D|----------------------------------------|
A|----------------------------------------|
E|----------------------------------------|

Guitar 2 - Third Solo (End)
e|-5-----3----3-5-----5-------5----6--8--10----5-6-5-------------3-5---8--|
B|--------------------------------------------------------8---6-----------|
G|-----------------------------------------------------7------------------|
D|------------------------------------------------------------------------|
A|------------------------------------------------------------------------|
E|------------------------------------------------------------------------|
       
e|--6------------13--------13-|
B|---------10-11-----10-11----|
G|----------------------------|
D|----------------------------|
A|----------------------------|
E|----------------------------|


| /  slide up
| \  slide down
| h  hammer-on
| p  pull-off
| ~  vibrato
| +  harmonic
| x  Mute note
===========================================================================
            
Hard to play? Try these video lessons and learn fast. | Correct




comments powered by Disqus
↑ Back to top | Tablatures and chords are parodies/interpretations of the original songs. You may use it for private study, scholarship, research or language learning purposes only