» » »

Extol, Inferno Tabs (ver.1)

Artists:  A B C D E F G H I J K L M N O P Q R S T U V W X Y Z # 

Inferno Tabs (ver.1)

Extol Tabs
 Rating:
4/5 (4 votes)
Inferno lessons Tabs too difficult? Try these video lessons and learn fast
                --------------------------------------------------------------------------
                         "INFERNO" - Extol
--------------------------------------------------------------------------

Tuning: Standard B
Note: Tune your 6th string down to B, then tune the rest of the strings 
the normal way. Extol does not tune to dropped B as noted on other tabs.        

I was just way too lazy to tab all the palm mutes, hammers, pulls and 
slides. The parts were challenging enough to figure out. If you can get 
through the song, you are good enough to know how to stylize the notes and 
chords to make it sound like the original. Crack your knuckles and get to 
work...Good Luck!

Riff A - Intro (wah pedal)
e|------------------------------------------------------------------------|
B|------------------------------------------------------------------------|
G|---------7-7---------------------7-7-7-7-7-7---------6-6----------------|
D|-5-5---------------------5-5-----------------4-4------------------4-4---|
A|-----6-6-----0-0-0-0-0-0-----6-6-----------------5-5-----0-0-0-0--------|
E|------------------------------------------------------------------------|

                                                        two guitars
e|---------------------------------------------------------------------|
B|---------------------------------------------------------------------|
G|-----6-6-6-6-6-6---------5-5------------------5----------------6-----|
D|-----------------3-3------------------3-3----------5--3--2-3-2-7-----|
A|-5-5-----------------5-5-----0-0-0-0------5-5------------------------|
E|---------------------------------------------------8--6--5-6-5-------|

Riff B - Intro - Left Guitar - 2x
e|------------------------------------------------------------------------|
B|------------------------------------------------------------------------|
G|---------7-7-----------------7-7-7-7-7-7---------6-6--------------------|
D|-5-5-----------------5-5-----------------4-4-----------------4-4--------|
A|-----6-6-----0-0-0-0-----6-6-----------------5-5-----0-0-0-0-----5-5----|
E|------------------------------------------------------------------------|

e|------------------------------------------------------------------------|
B|------------------------------------------------------------------------|
G|-6-6-6-6-6-6---------5-5-----------------5-5-5-5-5-5--------------------|
D|-------------3-3-----------------3-3------------------------------7-----|
A|-----------------5-5-----0-0-0-0-----5-5--------------------------------|
E|-----------------------------------------------------8--6--5-6-5--------|

Riff B - Intro - Right Guitar - 2x
e|------------------------------------------------------------------------|
B|------------------------------------------------------------------------|
G|-----------10-10-------------------10-10-10-10-10-10---------9-9--------|
D|-8-8---------------------8-8-------------------------7-7----------------|
A|-----10-10-------0-0-0-0-----10-10-----------------------9-9-----0-0-0-0|
E|------------------------------------------------------------------------|

e|------------------------------------------------------------------------|
B|------------------------------------------------------------------------|
G|---------9-9-9-9-9-9---------9-9-----------------9-9-9-9-9-9------------|
D|-7-7-----------------7-7-----------------7-7-----------------5-3-2-3-2--|
A|-----9-9-----------------8-8-----0-0-0-0-----8-8-----------------------4|
E|------------------------------------------------------------------------|

Repeat Riff B two more times with slower rhythm, same notes
Orchestral Break

Riff C - Intro - 2x
1|------------------------------------------------------------------|
2|------------------------------------------------------------------|
3|-----------0--0------------0--0-----------------------------------|
4|-----4--4--0--0------4--4--0--0-------4--4----3--3-------10-10-8--|
5|-7-7-7--7--8--8--8-8-7--7--8--8--8-8--7--7----3--3--3-3--10-10-8--|
6|-5-5-5--5--6--6--6-6-5--5--6--6--6-6--5--5--0-1--1--1-1--8--8--6--|

Riff D - Verse
1|----------------------------------------------------------------------|
2|----------------------------------------------------------------------|
3|----------------------------------------------------------------------|
4|----------------------------------------------------------------------|
5|-----------------------------------------3-2-3-6----------------------|
6|-0-0--0-0--0-0--0-0---0-0--0-0--0-0--0-0---------0-0--0-0--0-0--0-0---|

e|------------------------------------------------------------------------|
B|------------------------------------------------------------------------|
G|------------------------------------------------------------------------|
D|------------------------------------------------------------------------|
A|--------------------5-5-5-5-3-3-3-3-------------------------------------|
E|-0-0--0-0--0-0--0-0-----------------0-0--0-0--0-0--0-0---0-0--0-0--0-0--|

e|------------------------------------------------------------------------|
B|------------------------------------------------------------------------|
G|------------------------------------------------------------------------|
D|------------------------------------------------------------------------|
A|-----3-2-3-6----------------------------------------5-5-5-5-3-3-3-3-0-0-|
E|-0-0---------0-0--0-0--0-0--0-0--0-0--0-0--0-0--0-0---------------------|

e|-------------|
B|-------------|
G|-------------|
D|-------------|
A|-0-0-2-2-2-2-|
E|-------------|

Riff E - Bridge - Both Guitars
e|------------------------               ---------------------------------|
B|------------------------  Repeat First ---------------------------------|
G|------------------------  of Riff D    ---------------------------------|
D|-2----5----4----4-------               -2----5----4----4----2----5------|
A|-0----3----6----2-------               -0----3----6----2----0----3------|
E|------------------------               ---------------------------------|

separate guitars - single notes
e|-----------------|
B|-----------------|
G|-----------------|
D|-4--5--4---2--1--|
A|-6--7--6---3--2--|
E|-----------------|

Fill E (third guitar track)
e|------------------------------------------------------------------------|
B|------------------------------------------------------------------------|
G|-2--4--5----------------------------------------------------------------|
D|----------2--4--5--4--5--7--5--4--2---2---------------------------------|
A|------------------------------------------------------------------------|
E|------------------------------------------------------------------------|

e|------------------------------------------------------------------------|
B|------------------------------------------------------------------------|
G|-2--4--5----------------------------2--4--5-----------------------------|
D|----------2--4--5--4--5--7--5--4--2----------2--4--5--------------------|
A|------------------------------------------------------------------------|
E|------------------------------------------------------------------------|

Repeat Riff D w/ variations in Right Guitar

Riff D Variations
e|---------------------------------------------------|
B|---------------------------------------------------|
G|---------------------------------------------------|
D|-----------------------------------------7-5-2-4---|
A|---------------------------------------------------|
E|-0-0--0-0--0-0--0-0---0-0--0-0--0-0--0-0-----------|

e|-----------------------------------------------------------|
B|-----------------------------------------------------------|
G|-----------------------------------------------------------|
D|-----------------------------------------9-9-9-9-5-5-5-5---|
A|-----------------------------------------------------------|
E|-0-0--0-0--0-0--0-0---0-0--0-0--0-0--0-0-------------------|

e|---------------------------------------------------|
B|---------------------------------------------------|
G|---------------------------------------------------|
D|-----------------------------------------7-5-2-4---|
A|---------------------------------------------------|
E|-0-0--0-0--0-0--0-0---0-0--0-0--0-0--0-0-----------|

e|------------------------------------------------------------------------|
B|------------------------------------------------------------------------|
G|------------------------------------------------------------------------|
D|-----------------------------------------9-9-9-9-5-5-5-5-2-2-2-2-4-4-4-4|
A|------------------------------------------------------------------------|
E|-0-0--0-0--0-0--0-0---0-0--0-0--0-0--0-0--------------------------------|

Repeat Riff E
Drum Fill
Repeat Riff B 2x
Repeat Riff D without variations, both guitars the same

Single Guitar Break
1|--------------------------------------------------------------|
2|--------------------------------------------------------------|
3|--------------------------------------------------------------|
4|-2-2-2-2-2-2-2-2-2-2-3-3-3-3-3-2-2-2-2-2-4-4-4-4-4------------|
5|-3-3-3-3-3-0-0-0-0-0-1-1-1-1-1-3-3-3-3-3-5-5-5-5-5-8-8-8-8-8--|
6|-----------------------------------------5-5-5-5-5-6-6-6-6-6--|

Riff F - Both Guitars - Bridge
1|---------------------------------------------------------|
2|---------------------------------------------------------|
3|---------------------------------------------------------|
4|-5-5-5-5-5-8-8-8-4-4-4-4-4-4-5-5-5-5-5-8-8-8-4-4-4-4-4-4-|
5|-5-5-5-5-5-8-8-8-4-4-4-4-4-4-5-5-5-5-5-8-8-8-4-4-4-4-4-4-|
6|-3-3-3-3-3-6-6-6-2-2-2-2-2-2-3-3-3-3-3-6-6-6-2-2-2-2-2-2-|

1|---------------------------------------------------------|
2|---------------------------------------------------------|
3|-5-5-5-5-5-7-7-7-3-3-3-3-3-3-5-5-5-5-5-7-7-7-3-3-3-3-3-3-|
4|-5-5-5-5-5-7-7-7-3-3-3-3-3-3-5-5-5-5-5-7-7-7-3-3-3-3-3-3-|
5|-3-3-3-3-3-5-5-5-1-1-1-1-1-1-3-3-3-3-3-5-5-5-1-1-1-1-1-1-|
6|-3-3-3-3-3-5-5-5-1-1-1-1-1-1-3-3-3-3-3-5-5-5-1-1-1-1-1-1-|

Fill F (third guitar)
e|-7-7-7-7-7-8-8-8-8-8-8-8-8-8-7-7-7-7-7-8-8-8-8-8-8-8-8-8-|
B|-8-8-8-8-8-8-8-8-7-7-7-7-7-7-8-8-8-8-8-8-8-8-7-7-7-7-7-7-|
G|---------------------------------------------------------|
D|---------------------------------------------------------|
A|---------------------------------------------------------|
E|---------------------------------------------------------|

e|-3-3-3-3-3-2-2-2-2-1-1-1-1-1-1-1-3-3-3-3-3-2-2-2-2-1-1-1-1-1-1-1-|
B|-3-3-3-3-3-3-3-3-3-1-1-1-1-1-1-1-3-3-3-3-3-3-3-3-3-1-1-1-1-1-1-1-|
G|-----------------------------------------------------------------|
D|-----------------------------------------------------------------|
A|-----------------------------------------------------------------|
E|-----------------------------------------------------------------|

Little Riff
e|-4------1-------------|
B|-4------1-------------|
G|-4------1-------------|
D|-6------3-----3--3----|
A|-6------3-----3--3----|
E|-4------1-----1--1----|

Orchestral Break
Repeat Riff C - 2x
Repeat Riff D with variations
Repeat Riff E

Riff G - End - Left Guitar
e|-----------------------0-----------------------0------------------------|
B|---------------------0-----------------------0--------------------------|
G|-------------------5-----------------------5----------------------------|
D|---------------5-----------------------5----------------------7---------|
A|-------------4---6-------------------4---6--------------------7--5-5----|
E|-0-0---0-0----------------0-0---0-0---------------0-0---0-0---5--3-3----|

e|------------------|
B|------------------|
G|------------------|
D|------5-----------|
A|-5-5--5--3-3--3-3-|
E|-3-3--3--1-1--1-1-|

e|-----------------------0-----------------------0------------------------|
B|---------------------0-----------------------0--------------------------|
G|-------------------5-----------------------5----------------------------|
D|---------------5-----------------------5----------------------7---------|
A|-------------4---6-------------------4---6--------------------7--10-10--|
E|-0-0---0-0----------------0-0---0-0---------------0-0---0-0---5--8--8---|

e|------------------------------|
B|------------------------------|
G|---------------------------10-|
D|-------10------------------10-|
A|-10-10-10--8-8-8-8-8-8-8-8-8--|
E|-8--8--8-------------------8--|

Riff G - End - Left Guitar
e|-----------------------0-----------------------0----------------0-------|
B|---------------------0-----------------------0----------------0---------|
G|-------------------5-----------------------5----------------5-----------|
D|---------------5-----------------------5--------------------------------|
A|-------------4---6-------------------4---6------------------------5-5---|
E|-0-0---0-0----------------0-0---0-0---------------0-0---0-0-------3-3---|

e|---------0----------|
B|-------0------------|
G|-----5--------------|
D|--------------------|
A|-5-5-------3-3--3-3-|
E|-3-3-------1-1--1-1-|

e|-----------------------0-----------------------0----------------0-------|
B|---------------------0-----------------------0----------------0---------|
G|-------------------5-----------------------5----------------5-----------|
D|---------------5-----------------------5--------------------------------|
A|-------------4---6-------------------4---6------------------------3-3---|
E|-0-0---0-0----------------0-0---0-0---------------0-0---0-0-------------|

e|---------0--------------------------|
B|-------0---------------------0------|
G|-----7---------------------5-----5--|
D|-----------3-3-3-3-3-3-3-3-----5----|
A|-3-3--------------------------------|
E|------------------------------------|

End - Both Guitars
e|----------------------0---|
B|--------------------0-----|
G|------------------5-------|
D|--------------5-----------|
A|------------4---6---------|
E|-0-0--0-0-----------------|


| /  slide up
| \  slide down
| h  hammer-on
| p  pull-off
| ~  vibrato
| +  harmonic
| x  Mute note
===========================================================================
            
Submit corrections

comments powered by Disqus
↑ Back to top | Extol Tabs for Inferno. Lyrics for acoustic guitar and electric guitar. Tablatures and chords are parodies/interpretations of the original songs. You may use it for private study, scholarship, research or language learning purposes only